  0
SECTION
  2
HEADER
  9
$ACADVER
  1
AC1027
  9
$ACADMAINTVER
 70
   125
  9
$DWGCODEPAGE
  3
ANSI_932
  9
$LASTSAVEDBY
  1
satoe
  9
$REQUIREDVERSIONS
160
                 0
  9
$INSBASE
 10
0.0
 20
0.0
 30
0.0
  9
$EXTMIN
 10
-0.0000002887081791
 20
-0.0000007087007816
 30
0.0
  9
$EXTMAX
 10
839.9999997112917
 20
593.9999992912992
 30
0.0
  9
$LIMMIN
 10
0.0
 20
0.0
  9
$LIMMAX
 10
420.0
 20
297.0
  9
$ORTHOMODE
 70
     0
  9
$REGENMODE
 70
     1
  9
$FILLMODE
 70
     1
  9
$QTEXTMODE
 70
     0
  9
$MIRRTEXT
 70
     0
  9
$LTSCALE
 40
1.0
  9
$ATTMODE
 70
     1
  9
$TEXTSIZE
 40
2.5
  9
$TRACEWID
 40
1.0
  9
$TEXTSTYLE
  7
Standard
  9
$CLAYER
  8
0
  9
$CELTYPE
  6
ByLayer
  9
$CECOLOR
 62
   256
  9
$CELTSCALE
 40
1.0
  9
$DISPSILH
 70
     0
  9
$DIMSCALE
 40
1.0
  9
$DIMASZ
 40
2.5
  9
$DIMEXO
 40
0.625
  9
$DIMDLI
 40
3.75
  9
$DIMRND
 40
0.0
  9
$DIMDLE
 40
0.0
  9
$DIMEXE
 40
1.25
  9
$DIMTP
 40
0.0
  9
$DIMTM
 40
0.0
  9
$DIMTXT
 40
2.5
  9
$DIMCEN
 40
2.5
  9
$DIMTSZ
 40
0.0
  9
$DIMTOL
 70
     0
  9
$DIMLIM
 70
     0
  9
$DIMTIH
 70
     0
  9
$DIMTOH
 70
     0
  9
$DIMSE1
 70
     0
  9
$DIMSE2
 70
     0
  9
$DIMTAD
 70
     1
  9
$DIMZIN
 70
     8
  9
$DIMBLK
  1

  9
$DIMASO
 70
     1
  9
$DIMSHO
 70
     1
  9
$DIMPOST
  1

  9
$DIMAPOST
  1

  9
$DIMALT
 70
     0
  9
$DIMALTD
 70
     3
  9
$DIMALTF
 40
0.03937007874016
  9
$DIMLFAC
 40
1.0
  9
$DIMTOFL
 70
     1
  9
$DIMTVP
 40
0.0
  9
$DIMTIX
 70
     0
  9
$DIMSOXD
 70
     0
  9
$DIMSAH
 70
     0
  9
$DIMBLK1
  1

  9
$DIMBLK2
  1

  9
$DIMSTYLE
  2
ISO-25
  9
$DIMCLRD
 70
     0
  9
$DIMCLRE
 70
     0
  9
$DIMCLRT
 70
     0
  9
$DIMTFAC
 40
1.0
  9
$DIMGAP
 40
0.625
  9
$DIMJUST
 70
     0
  9
$DIMSD1
 70
     0
  9
$DIMSD2
 70
     0
  9
$DIMTOLJ
 70
     0
  9
$DIMTZIN
 70
     8
  9
$DIMALTZ
 70
     0
  9
$DIMALTTZ
 70
     0
  9
$DIMUPT
 70
     0
  9
$DIMDEC
 70
     2
  9
$DIMTDEC
 70
     2
  9
$DIMALTU
 70
     2
  9
$DIMALTTD
 70
     3
  9
$DIMTXSTY
  7
Standard
  9
$DIMAUNIT
 70
     0
  9
$DIMADEC
 70
     0
  9
$DIMALTRND
 40
0.0
  9
$DIMAZIN
 70
     0
  9
$DIMDSEP
 70
    44
  9
$DIMATFIT
 70
     3
  9
$DIMFRAC
 70
     0
  9
$DIMLDRBLK
  1

  9
$DIMLUNIT
 70
     2
  9
$DIMLWD
 70
    -2
  9
$DIMLWE
 70
    -2
  9
$DIMTMOVE
 70
     0
  9
$DIMFXL
 40
1.0
  9
$DIMFXLON
 70
     0
  9
$DIMJOGANG
 40
0.7853981633974483
  9
$DIMTFILL
 70
     0
  9
$DIMTFILLCLR
 70
     0
  9
$DIMARCSYM
 70
     0
  9
$DIMLTYPE
  6

  9
$DIMLTEX1
  6

  9
$DIMLTEX2
  6

  9
$DIMTXTDIRECTION
 70
     0
  9
$LUNITS
 70
     2
  9
$LUPREC
 70
     4
  9
$SKETCHINC
 40
1.0
  9
$FILLETRAD
 40
0.0
  9
$AUNITS
 70
     0
  9
$AUPREC
 70
     0
  9
$MENU
  1
.
  9
$ELEVATION
 40
0.0
  9
$PELEVATION
 40
0.0
  9
$THICKNESS
 40
0.0
  9
$LIMCHECK
 70
     0
  9
$CHAMFERA
 40
0.0
  9
$CHAMFERB
 40
0.0
  9
$CHAMFERC
 40
0.0
  9
$CHAMFERD
 40
0.0
  9
$SKPOLY
 70
     0
  9
$TDCREATE
 40
2457301.619189815
  9
$TDUCREATE
 40
2457301.244197986
  9
$TDUPDATE
 40
2460285.756388889
  9
$TDUUPDATE
 40
2460285.381388889
  9
$TDINDWG
 40
0.1705248148
  9
$TDUSRTIMER
 40
0.1705247917
  9
$USRTIMER
 70
     1
  9
$ANGBASE
 50
0.0
  9
$ANGDIR
 70
     0
  9
$PDMODE
 70
     0
  9
$PDSIZE
 40
0.0
  9
$PLINEWID
 40
0.0
  9
$SPLFRAME
 70
     0
  9
$SPLINETYPE
 70
     6
  9
$SPLINESEGS
 70
     8
  9
$HANDSEED
  5
18AC
  9
$SURFTAB1
 70
     6
  9
$SURFTAB2
 70
     6
  9
$SURFTYPE
 70
     6
  9
$SURFU
 70
     6
  9
$SURFV
 70
     6
  9
$UCSBASE
  2

  9
$UCSNAME
  2

  9
$UCSORG
 10
0.0
 20
0.0
 30
0.0
  9
$UCSXDIR
 10
1.0
 20
0.0
 30
0.0
  9
$UCSYDIR
 10
0.0
 20
1.0
 30
0.0
  9
$UCSORTHOREF
  2

  9
$UCSORTHOVIEW
 70
     0
  9
$UCSORGTOP
 10
0.0
 20
0.0
 30
0.0
  9
$UCSORGBOTTOM
 10
0.0
 20
0.0
 30
0.0
  9
$UCSORGLEFT
 10
0.0
 20
0.0
 30
0.0
  9
$UCSORGRIGHT
 10
0.0
 20
0.0
 30
0.0
  9
$UCSORGFRONT
 10
0.0
 20
0.0
 30
0.0
  9
$UCSORGBACK
 10
0.0
 20
0.0
 30
0.0
  9
$PUCSBASE
  2

  9
$PUCSNAME
  2

  9
$PUCSORG
 10
0.0
 20
0.0
 30
0.0
  9
$PUCSXDIR
 10
1.0
 20
0.0
 30
0.0
  9
$PUCSYDIR
 10
0.0
 20
1.0
 30
0.0
  9
$PUCSORTHOREF
  2

  9
$PUCSORTHOVIEW
 70
     0
  9
$PUCSORGTOP
 10
0.0
 20
0.0
 30
0.0
  9
$PUCSORGBOTTOM
 10
0.0
 20
0.0
 30
0.0
  9
$PUCSORGLEFT
 10
0.0
 20
0.0
 30
0.0
  9
$PUCSORGRIGHT
 10
0.0
 20
0.0
 30
0.0
  9
$PUCSORGFRONT
 10
0.0
 20
0.0
 30
0.0
  9
$PUCSORGBACK
 10
0.0
 20
0.0
 30
0.0
  9
$USERI1
 70
     0
  9
$USERI2
 70
     0
  9
$USERI3
 70
     0
  9
$USERI4
 70
     0
  9
$USERI5
 70
     0
  9
$USERR1
 40
0.0
  9
$USERR2
 40
0.0
  9
$USERR3
 40
0.0
  9
$USERR4
 40
0.0
  9
$USERR5
 40
0.0
  9
$WORLDVIEW
 70
     1
  9
$SHADEDGE
 70
     3
  9
$SHADEDIF
 70
    70
  9
$TILEMODE
 70
     1
  9
$MAXACTVP
 70
    64
  9
$PINSBASE
 10
0.0
 20
0.0
 30
0.0
  9
$PLIMCHECK
 70
     0
  9
$PEXTMIN
 10
-0.0237568809989171
 20
-0.0045413241444976
 30
-0.0015258207003583
  9
$PEXTMAX
 10
420.0205118455832
 20
297.0136916791885
 30
0.0000000349246037
  9
$PLIMMIN
 10
-0.0757058534055659
 20
-0.0006738459155429
  9
$PLIMMAX
 10
419.9242941465945
 20
296.9993261540846
  9
$UNITMODE
 70
     0
  9
$VISRETAIN
 70
     1
  9
$PLINEGEN
 70
     0
  9
$PSLTSCALE
 70
     1
  9
$TREEDEPTH
 70
  3020
  9
$CMLSTYLE
  2
Standard
  9
$CMLJUST
 70
     0
  9
$CMLSCALE
 40
20.0
  9
$PROXYGRAPHICS
 70
     1
  9
$MEASUREMENT
 70
     1
  9
$CELWEIGHT
370
    -1
  9
$ENDCAPS
280
     0
  9
$JOINSTYLE
280
     0
  9
$LWDISPLAY
290
     0
  9
$INSUNITS
 70
     4
  9
$HYPERLINKBASE
  1

  9
$STYLESHEET
  1
monochrome.ctb
  9
$XEDIT
290
     1
  9
$CEPSNTYPE
380
     0
  9
$PSTYLEMODE
290
     1
  9
$FINGERPRINTGUID
  2
{DCF6FB66-BDC8-43BF-91FC-A26568E07BE6}
  9
$VERSIONGUID
  2
{AEB928BB-842F-3D41-A8FC-9752337D4D93}
  9
$EXTNAMES
290
     1
  9
$PSVPSCALE
 40
0.0
  9
$OLESTARTUP
290
     0
  9
$SORTENTS
280
   127
  9
$INDEXCTL
280
     0
  9
$HIDETEXT
280
     1
  9
$XCLIPFRAME
280
     2
  9
$HALOGAP
280
     0
  9
$OBSCOLOR
 70
   257
  9
$OBSLTYPE
280
     0
  9
$INTERSECTIONDISPLAY
280
     0
  9
$INTERSECTIONCOLOR
 70
   257
  9
$DIMASSOC
280
     2
  9
$PROJECTNAME
  1

  9
$CAMERADISPLAY
290
     0
  9
$LENSLENGTH
 40
50.0
  9
$CAMERAHEIGHT
 40
0.0
  9
$STEPSPERSEC
 40
2.0
  9
$STEPSIZE
 40
6.0
  9
$3DDWFPREC
 40
2.0
  9
$PSOLWIDTH
 40
5.0
  9
$PSOLHEIGHT
 40
80.0
  9
$LOFTANG1
 40
1.570796326794896
  9
$LOFTANG2
 40
1.570796326794896
  9
$LOFTMAG1
 40
0.0
  9
$LOFTMAG2
 40
0.0
  9
$LOFTPARAM
 70
     7
  9
$LOFTNORMALS
280
     1
  9
$LATITUDE
 40
37.795
  9
$LONGITUDE
 40
-122.394
  9
$NORTHDIRECTION
 40
0.0
  9
$TIMEZONE
 70
 -8000
  9
$LIGHTGLYPHDISPLAY
280
     1
  9
$TILEMODELIGHTSYNCH
280
     1
  9
$CMATERIAL
347
EC
  9
$SOLIDHIST
280
     0
  9
$SHOWHIST
280
     1
  9
$DWFFRAME
280
     2
  9
$DGNFRAME
280
     0
  9
$REALWORLDSCALE
290
     1
  9
$INTERFERECOLOR
 62
     1
  9
$INTERFEREOBJVS
345
F9
  9
$INTERFEREVPVS
346
F6
  9
$CSHADOW
280
     0
  9
$SHADOWPLANELOCATION
 40
0.0
  0
ENDSEC
  0
SECTION
  2
CLASSES
  0
CLASS
  1
ACDBDICTIONARYWDFLT
  2
AcDbDictionaryWithDefault
  3
ObjectDBX Classes
 90
        0
 91
        1
280
     0
281
     0
  0
CLASS
  1
DICTIONARYVAR
  2
AcDbDictionaryVar
  3
ObjectDBX Classes
 90
        0
 91
       15
280
     0
281
     0
  0
CLASS
  1
TABLESTYLE
  2
AcDbTableStyle
  3
ObjectDBX Classes
 90
     4095
 91
        1
280
     0
281
     0
  0
CLASS
  1
MATERIAL
  2
AcDbMaterial
  3
ObjectDBX Classes
 90
     1153
 91
        3
280
     0
281
     0
  0
CLASS
  1
VISUALSTYLE
  2
AcDbVisualStyle
  3
ObjectDBX Classes
 90
     4095
 91
       24
280
     0
281
     0
  0
CLASS
  1
SCALE
  2
AcDbScale
  3
ObjectDBX Classes
 90
     1153
 91
       17
280
     0
281
     0
  0
CLASS
  1
MLEADERSTYLE
  2
AcDbMLeaderStyle
  3
ACDB_MLEADERSTYLE_CLASS
 90
     4095
 91
        1
280
     0
281
     0
  0
CLASS
  1
CELLSTYLEMAP
  2
AcDbCellStyleMap
  3
ObjectDBX Classes
 90
     1152
 91
        1
280
     0
281
     0
  0
CLASS
  1
EXACXREFPANELOBJECT
  2
ExAcXREFPanelObject
  3
EXAC_ESW
 90
     1025
 91
        0
280
     0
281
     0
  0
CLASS
  1
NPOCOLLECTION
  2
AcDbImpNonPersistentObjectsCollection
  3
ObjectDBX Classes
 90
     1153
 91
        0
280
     0
281
     0
  0
CLASS
  1
LAYER_INDEX
  2
AcDbLayerIndex
  3
ObjectDBX Classes
 90
        0
 91
        0
280
     0
281
     0
  0
CLASS
  1
SPATIAL_INDEX
  2
AcDbSpatialIndex
  3
ObjectDBX Classes
 90
        0
 91
        0
280
     0
281
     0
  0
CLASS
  1
IDBUFFER
  2
AcDbIdBuffer
  3
ObjectDBX Classes
 90
        0
 91
        0
280
     0
281
     0
  0
CLASS
  1
ACDBSECTIONVIEWSTYLE
  2
AcDbSectionViewStyle
  3
ObjectDBX Classes
 90
     1025
 91
        1
280
     0
281
     0
  0
CLASS
  1
ACDBDETAILVIEWSTYLE
  2
AcDbDetailViewStyle
  3
ObjectDBX Classes
 90
     1025
 91
        1
280
     0
281
     0
  0
CLASS
  1
SORTENTSTABLE
  2
AcDbSortentsTable
  3
ObjectDBX Classes
 90
        0
 91
        0
280
     0
281
     0
  0
CLASS
  1
RAPIDRTRENDERSETTINGS
  2
AcDbRapidRTRenderSettings
  3
ObjectDBX Classes
 90
     1024
 91
        7
280
     0
281
     0
  0
CLASS
  1
MENTALRAYRENDERSETTINGS
  2
AcDbMentalRayRenderSettings
  3
SCENEOE
 90
     1024
 91
        1
280
     0
281
     0
  0
ENDSEC
  0
SECTION
  2
TABLES
  0
TABLE
  2
VPORT
  5
8
102
{ACAD_XDICTIONARY
360
5E7
102
}
330
0
100
AcDbSymbolTable
 70
     1
1001
ACAD
1000
DbSaveVer
1071
      278
  0
VPORT
  5
EA
330
8
100
AcDbSymbolTableRecord
100
AcDbViewportTableRecord
  2
*Active
 70
     0
 10
0.0
 20
0.0
 11
1.0
 21
1.0
 12
420.0000016670694
 22
297.0000006743132
 13
0.0
 23
0.0
 14
10.0
 24
10.0
 15
10.0
 25
10.0
 16
0.0
 26
0.0
 36
1.0
 17
0.0
 27
0.0
 37
0.0
 40
627.7003057627718
 41
2.472312703583062
 42
50.0
 43
0.0
 44
0.0
 50
0.0
 51
0.0
 71
     0
 72
   100
 73
     1
 74
     3
 75
     0
 76
     1
 77
     0
 78
     0
281
     0
 65
     1
110
0.0
120
0.0
130
0.0
111
1.0
121
0.0
131
0.0
112
0.0
122
1.0
132
0.0
 79
     0
146
0.0
348
F5
 60
     3
 61
     5
292
     1
282
     1
141
0.0
142
0.0
 63
   250
421
  3355443
1001
ACAD_NAV_VCDISPLAY
1070
     3
  0
ENDTAB
  0
TABLE
  2
LTYPE
  5
5
330
0
100
AcDbSymbolTable
 70
     5
  0
LTYPE
  5
14
330
5
100
AcDbSymbolTableRecord
100
AcDbLinetypeTableRecord
  2
ByBlock
 70
     0
  3

 72
    65
 73
     0
 40
0.0
  0
LTYPE
  5
15
330
5
100
AcDbSymbolTableRecord
100
AcDbLinetypeTableRecord
  2
ByLayer
 70
     0
  3

 72
    65
 73
     0
 40
0.0
  0
LTYPE
  5
16
330
5
100
AcDbSymbolTableRecord
100
AcDbLinetypeTableRecord
  2
Continuous
 70
     0
  3
Solid line
 72
    65
 73
     0
 40
0.0
  0
LTYPE
  5
242
330
5
100
AcDbSymbolTableRecord
100
AcDbLinetypeTableRecord
  2
DASHED
 70
     0
  3
Dashed __ __ __ __ __ __ __ __ __ __ __ __ __ _
 72
    65
 73
     2
 40
19.05
 49
12.7
 74
     0
 49
-6.349999999999999
 74
     0
  0
LTYPE
  5
243
330
5
100
AcDbSymbolTableRecord
100
AcDbLinetypeTableRecord
  2
DASHED2
 70
     0
  3
Dashed (.5x) _ _ _ _ _ _ _ _ _ _ _ _ _ _ _ _ _
 72
    65
 73
     2
 40
9.524999999999998
 49
6.349999999999999
 74
     0
 49
-3.174999999999999
 74
     0
  0
LTYPE
  5
538
330
5
100
AcDbSymbolTableRecord
100
AcDbLinetypeTableRecord
  2
Amconstr
 70
     0
  3
_______________________
 72
    65
 73
     2
 40
9999.0
 49
9999.0
 74
     0
 49
0.0
 74
     0
  0
ENDTAB
  0
TABLE
  2
LAYER
  5
2
102
{ACAD_XDICTIONARY
360
1FF
102
}
330
0
100
AcDbSymbolTable
 70
    10
  0
LAYER
  5
10
102
{ACAD_XDICTIONARY
360
13C
102
}
330
2
100
AcDbSymbolTableRecord
100
AcDbLayerTableRecord
  2
0
 70
     0
 62
     7
  6
Continuous
370
    -3
390
F
347
EE
348
0
  0
LAYER
  5
244
102
{ACAD_XDICTIONARY
360
245
102
}
330
2
100
AcDbSymbolTableRecord
100
AcDbLayerTableRecord
  2
WAKU
 70
     0
 62
     7
  6
Continuous
370
    -3
390
F
347
EE
348
0
  0
LAYER
  5
539
102
{ACAD_XDICTIONARY
360
53A
102
}
330
2
100
AcDbSymbolTableRecord
100
AcDbLayerTableRecord
  2
AM_CL
 70
     0
 62
    -1
  6
Amconstr
370
    25
390
F
347
EE
348
0
  0
LAYER
  5
63F
102
{ACAD_XDICTIONARY
360
640
102
}
330
2
100
AcDbSymbolTableRecord
100
AcDbLayerTableRecord
  2
役物
 70
     0
 62
     3
  6
Continuous
370
    -3
390
651
347
EE
348
0
  0
LAYER
  5
641
102
{ACAD_XDICTIONARY
360
642
102
}
330
2
100
AcDbSymbolTableRecord
100
AcDbLayerTableRecord
  2
本体
 70
     0
 62
     4
  6
Continuous
370
    -3
390
F
347
EE
348
0
  0
LAYER
  5
647
102
{ACAD_XDICTIONARY
360
648
102
}
330
2
100
AcDbSymbolTableRecord
100
AcDbLayerTableRecord
  2
文字
 70
     0
 62
     7
  6
Continuous
370
    -3
390
F
347
EE
348
0
  0
LAYER
  5
E05
102
{ACAD_XDICTIONARY
360
E06
102
}
330
2
100
AcDbSymbolTableRecord
100
AcDbLayerTableRecord
  2
文字１
 70
     0
 62
     7
  6
Continuous
370
    -3
390
F
347
EE
348
0
  0
LAYER
  5
148C
102
{ACAD_XDICTIONARY
360
148D
102
}
330
2
100
AcDbSymbolTableRecord
100
AcDbLayerTableRecord
  2
ビスくぎ
 70
     0
 62
     6
  6
Continuous
370
    -3
390
F
347
EE
348
0
  0
LAYER
  5
148E
102
{ACAD_XDICTIONARY
360
148F
102
}
330
2
100
AcDbSymbolTableRecord
100
AcDbLayerTableRecord
  2
役物3
 70
     0
 62
    94
  6
Continuous
370
    -3
390
F
347
EE
348
0
  0
LAYER
  5
1490
102
{ACAD_XDICTIONARY
360
1491
102
}
330
2
100
AcDbSymbolTableRecord
100
AcDbLayerTableRecord
  2
役物4
 70
     0
 62
   190
  6
Continuous
370
    -3
390
F
347
EE
348
0
  0
ENDTAB
  0
TABLE
  2
STYLE
  5
3
330
0
100
AcDbSymbolTable
 70
     3
  0
STYLE
  5
11
330
3
100
AcDbSymbolTableRecord
100
AcDbTextStyleTableRecord
  2
Standard
 70
     0
 40
0.0
 41
1.0
 50
0.0
 71
     0
 42
2.5
  3
txt.shx
  4
extfont2.shx
  0
STYLE
  5
246
330
3
100
AcDbSymbolTableRecord
100
AcDbTextStyleTableRecord
  2
WAKU
 70
     0
 40
5.0
 41
1.0
 50
0.0
 71
     0
 42
5.0
  3
MS Gothic.ttf
  4

1001
ACAD
1000
MS Gothic
1071
    32817
  0
ENDTAB
  0
TABLE
  2
VIEW
  5
6
330
0
100
AcDbSymbolTable
 70
     4
  0
ENDTAB
  0
TABLE
  2
UCS
  5
7
330
0
100
AcDbSymbolTable
 70
     0
  0
ENDTAB
  0
TABLE
  2
APPID
  5
9
330
0
100
AcDbSymbolTable
 70
    11
  0
APPID
  5
12
330
9
100
AcDbSymbolTableRecord
100
AcDbRegAppTableRecord
  2
ACAD
 70
     0
  0
APPID
  5
9E
330
9
100
AcDbSymbolTableRecord
100
AcDbRegAppTableRecord
  2
ACAD_PSEXT
 70
     0
  0
APPID
  5
133
330
9
100
AcDbSymbolTableRecord
100
AcDbRegAppTableRecord
  2
AcadAnnoPO
 70
     0
  0
APPID
  5
134
330
9
100
AcDbSymbolTableRecord
100
AcDbRegAppTableRecord
  2
AcadAnnotative
 70
     0
  0
APPID
  5
135
330
9
100
AcDbSymbolTableRecord
100
AcDbRegAppTableRecord
  2
ACAD_DSTYLE_DIMJAG
 70
     0
  0
APPID
  5
136
330
9
100
AcDbSymbolTableRecord
100
AcDbRegAppTableRecord
  2
ACAD_DSTYLE_DIMTALN
 70
     0
  0
APPID
  5
165
330
9
100
AcDbSymbolTableRecord
100
AcDbRegAppTableRecord
  2
ACAD_MLEADERVER
 70
     0
  0
APPID
  5
217
330
9
100
AcDbSymbolTableRecord
100
AcDbRegAppTableRecord
  2
ACAD_NAV_VCDISPLAY
 70
     0
  0
APPID
  5
64F
330
9
100
AcDbSymbolTableRecord
100
AcDbRegAppTableRecord
  2
GradientColor1ACI
 70
     0
  0
APPID
  5
650
330
9
100
AcDbSymbolTableRecord
100
AcDbRegAppTableRecord
  2
GradientColor2ACI
 70
     0
  0
APPID
  5
AFA
330
9
100
AcDbSymbolTableRecord
100
AcDbRegAppTableRecord
  2
ACAD_EXEMPT_FROM_CAD_STANDARDS
 70
     0
  0
ENDTAB
  0
TABLE
  2
DIMSTYLE
  5
A
330
0
100
AcDbSymbolTable
 70
     4
100
AcDbDimStyleTable
 71
     1
340
27
  0
DIMSTYLE
105
27
330
A
100
AcDbSymbolTableRecord
100
AcDbDimStyleTableRecord
  2
ISO-25
 70
     0
 41
2.5
 42
0.625
 43
3.75
 44
1.25
 73
     0
 74
     0
 77
     1
 78
     8
140
2.5
141
2.5
143
0.03937007874016
147
0.625
171
     3
172
     1
271
     2
272
     2
274
     3
278
    44
283
     0
284
     8
340
11
  0
DIMSTYLE
105
E07
330
A
100
AcDbSymbolTableRecord
100
AcDbDimStyleTableRecord
  2
AM_ISO
 70
     0
  4
"
 41
2.5
 42
1.0
 43
10.0
 44
1.0
 47
0.1
 48
0.1
 73
     0
 74
     0
 77
     1
 78
     8
 79
     2
140
3.5
141
0.0
143
0.0393701
146
0.71
147
1.5
172
     1
176
   256
177
   256
178
     2
271
     2
272
     3
274
     4
283
     0
284
     8
340
11
371
    -1
372
    -1
  0
DIMSTYLE
105
1492
330
A
100
AcDbSymbolTableRecord
100
AcDbDimStyleTableRecord
  2
Annotative
 70
     0
 40
0.0
 41
2.5
 42
0.625
 43
3.75
 44
1.25
 73
     0
 74
     0
 77
     1
 78
     8
140
2.5
141
2.5
143
0.03937007874016
147
0.625
171
     3
172
     1
271
     2
272
     2
274
     3
278
    44
283
     0
284
     8
340
11
1001
AcadAnnotative
1000
AnnotativeData
1002
{
1070
     1
1070
     1
1002
}
1001
ACAD_DSTYLE_DIMJAG
1070
   388
1040
1.5
1001
ACAD_DSTYLE_DIMTALN
1070
   392
1070
     0
  0
ENDTAB
  0
TABLE
  2
BLOCK_RECORD
  5
1
330
0
100
AcDbSymbolTable
 70
     1
  0
BLOCK_RECORD
  5
1F
102
{ACAD_XDICTIONARY
360
1CE
102
}
330
1
100
AcDbSymbolTableRecord
100
AcDbBlockTableRecord
  2
*Model_Space
340
22
 70
     0
280
     1
281
     0
  0
BLOCK_RECORD
  5
D2
330
1
100
AcDbSymbolTableRecord
100
AcDbBlockTableRecord
  2
*Paper_Space
340
D3
 70
     0
280
     1
281
     0
  0
ENDTAB
  0
ENDSEC
  0
SECTION
  2
BLOCKS
  0
BLOCK
  5
20
330
1F
100
AcDbEntity
  8
0
100
AcDbBlockBegin
  2
*Model_Space
 70
     0
 10
0.0
 20
0.0
 30
0.0
  3
*Model_Space
  1

  0
ENDBLK
  5
21
330
1F
100
AcDbEntity
  8
0
100
AcDbBlockEnd
  0
BLOCK
  5
D4
330
D2
100
AcDbEntity
 67
     1
  8
0
100
AcDbBlockBegin
  2
*Paper_Space
 70
     0
 10
0.0
 20
0.0
 30
0.0
  3
*Paper_Space
  1

  0
ENDBLK
  5
D5
330
D2
100
AcDbEntity
 67
     1
  8
0
100
AcDbBlockEnd
  0
ENDSEC
  0
SECTION
  2
ENTITIES
  0
MTEXT
  5
3BA
330
1F
100
AcDbEntity
  8
WAKU
100
AcDbMText
 10
133.8849112072821
 20
35.21985575918302
 30
0.0
 40
5.0
 41
190.5002997985425
 46
0.0
 71
     1
 72
     5
  1
アイジールーフシリーズ参考ディテール
  7
WAKU
 73
     1
 44
1.0
  0
LINE
  5
3BB
330
1F
100
AcDbEntity
  8
WAKU
100
AcDbLine
 10
127.9999997112918
 20
39.99999929129922
 30
0.0
 11
127.9999997112918
 21
23.99999929129945
 31
0.0
  0
LINE
  5
3BC
330
1F
100
AcDbEntity
  8
WAKU
100
AcDbLine
 10
31.99999971129182
 20
23.99999929129945
 30
0.0
 11
127.9999997112918
 21
23.99999929129945
 31
0.0
  0
LINE
  5
3BD
330
1F
100
AcDbEntity
  8
WAKU
100
AcDbLine
 10
31.99999971129182
 20
39.99999929129922
 30
0.0
 11
127.9999997112918
 21
39.99999929129922
 31
0.0
  0
LINE
  5
3BE
330
1F
100
AcDbEntity
  8
WAKU
100
AcDbLine
 10
129.9999997112918
 20
41.99999929129922
 30
0.0
 11
129.9999997112918
 21
21.99999929129945
 31
0.0
  0
LINE
  5
3BF
330
1F
100
AcDbEntity
  8
WAKU
100
AcDbLine
 10
29.99999971129182
 20
41.99999929129922
 30
0.0
 11
809.9999997112918
 21
41.99999929129922
 31
0.0
  0
LINE
  5
3C0
330
1F
100
AcDbEntity
  8
WAKU
100
AcDbLine
 10
29.99999971129182
 20
21.99999929129945
 30
0.0
 11
809.9999997112918
 21
21.99999929129945
 31
0.0
  0
MTEXT
  5
3C1
330
1F
100
AcDbEntity
  8
WAKU
100
AcDbMText
 10
40.90853043579772
 20
35.53439598740943
 30
0.0
 40
6.0
 41
190.5002997985425
 46
0.0
 71
     1
 72
     5
  1
アイジー工業株式会社
  7
WAKU
 73
     1
 44
1.0
  0
LINE
  5
3C2
330
1F
100
AcDbEntity
  8
WAKU
100
AcDbLine
 10
29.99999971129182
 20
571.9999992912992
 30
0.0
 11
29.99999971129182
 21
21.99999929129945
 31
0.0
  0
LINE
  5
3C3
330
1F
100
AcDbEntity
  8
WAKU
100
AcDbLine
 10
29.99999971129182
 20
41.99999929129922
 30
0.0
 11
29.99999971129182
 21
21.99999929129945
 31
0.0
  0
LINE
  5
3C4
330
1F
100
AcDbEntity
  8
WAKU
100
AcDbLine
 10
31.99999971129182
 20
39.99999929129922
 30
0.0
 11
31.99999971129182
 21
23.99999929129945
 31
0.0
  0
MTEXT
  5
3C5
330
1F
100
AcDbEntity
  8
WAKU
100
AcDbMText
 10
276.818617573821
 20
39.72724776496057
 30
0.0
 40
5.0
 41
10.0
 46
0.0
 71
     1
 72
     5
  1
名称
  7
WAKU
 73
     1
 44
1.0
  0
LINE
  5
3C6
330
1F
100
AcDbEntity
  8
WAKU
100
AcDbLine
 10
284.9999997112918
 20
41.99999929129922
 30
0.0
 11
284.9999997112918
 21
21.99999929129945
 31
0.0
  0
LINE
  5
3C7
330
1F
100
AcDbEntity
  8
WAKU
100
AcDbLine
 10
274.9999997112918
 20
41.99999929129922
 30
0.0
 11
274.9999997112918
 21
21.99999929129945
 31
0.0
  0
LINE
  5
3C8
330
1F
100
AcDbEntity
  8
WAKU
100
AcDbLine
 10
511.3090120415344
 20
41.99999929129922
 30
0.0
 11
511.3090120415344
 21
21.99999929129945
 31
0.0
  0
MTEXT
  5
3C9
330
1F
100
AcDbEntity
  8
WAKU
100
AcDbMText
 10
503.1276299040637
 20
39.72724776496057
 30
0.0
 40
5.0
 41
10.0
 46
26.01112855658425
 71
     1
 72
     5
  1
単位
  7
WAKU
 73
     1
 44
1.0
1001
ACAD
1000
ACAD_MTEXT_DEFINED_HEIGHT_BEGIN
1070
    46
1040
26.01112855658425
1000
ACAD_MTEXT_DEFINED_HEIGHT_END
  0
MTEXT
  5
3CA
330
1F
100
AcDbEntity
  8
WAKU
100
AcDbMText
 10
527.6764589568584
 20
35.21985575918302
 30
0.0
 40
5.0
 41
190.5002997985425
 46
0.0
 71
     1
 72
     5
  1
mm
  7
WAKU
 73
     1
 44
1.0
  0
LINE
  5
3CB
330
1F
100
AcDbEntity
  8
WAKU
100
AcDbLine
 10
501.3090120415345
 20
21.99999929129945
 30
0.0
 11
501.3090120415345
 21
41.99999929129922
 31
0.0
  0
MTEXT
  5
3CC
330
1F
100
AcDbEntity
  8
WAKU
100
AcDbMText
 10
553.1276299040637
 20
39.72724776496057
 30
0.0
 40
5.0
 41
10.0
 46
0.0
 71
     1
 72
     5
  1
縮尺
  7
WAKU
 73
     1
 44
1.0
  0
LINE
  5
3CD
330
1F
100
AcDbEntity
  8
WAKU
100
AcDbLine
 10
561.3090120415344
 20
41.99999929129922
 30
0.0
 11
561.3090120415344
 21
21.99999929129945
 31
0.0
  0
LINE
  5
3CE
330
1F
100
AcDbEntity
  8
WAKU
100
AcDbLine
 10
551.3090120415345
 20
41.99999929129922
 30
0.0
 11
551.3090120415345
 21
21.99999929129945
 31
0.0
  0
LINE
  5
3CF
330
1F
100
AcDbEntity
  8
WAKU
  6
DASHED2
 48
0.5
100
AcDbLine
 10
701.3090120415345
 20
31.99999929129922
 30
0.0
 11
809.9999997112918
 21
31.99999929129922
 31
0.0
  0
MTEXT
  5
3D0
330
1F
100
AcDbEntity
  8
WAKU
100
AcDbMText
 10
693.1276299040637
 20
39.72724776496057
 30
0.0
 40
5.0
 41
10.0
 46
0.0
 71
     1
 72
     5
  1
特記
  7
WAKU
 73
     1
 44
1.0
  0
LINE
  5
3D1
330
1F
100
AcDbEntity
  8
WAKU
100
AcDbLine
 10
701.3090120415345
 20
41.99999929129922
 30
0.0
 11
701.3090120415345
 21
21.99999929129945
 31
0.0
  0
LINE
  5
3D2
330
1F
100
AcDbEntity
  8
WAKU
100
AcDbLine
 10
691.3090120415345
 20
41.99999929129922
 30
0.0
 11
691.3090120415345
 21
21.99999929129945
 31
0.0
  0
MTEXT
  5
3D3
330
1F
100
AcDbEntity
  8
WAKU
100
AcDbMText
 10
635.6335526105395
 20
35.21985575918302
 30
0.0
 40
5.0
 41
190.5002997985425
 46
0.0
 71
     1
 72
     5
  1
wrp007-07-02
  7
WAKU
 73
     1
 44
1.0
  0
LINE
  5
3D4
330
1F
100
AcDbEntity
  8
WAKU
100
AcDbLine
 10
611.3090120415344
 20
41.99999929129922
 30
0.0
 11
611.3090120415344
 21
21.99999929129945
 31
0.0
  0
LINE
  5
3D5
330
1F
100
AcDbEntity
  8
WAKU
100
AcDbLine
 10
621.3090120415345
 20
41.99999929129922
 30
0.0
 11
621.3090120415345
 21
21.99999929129945
 31
0.0
  0
MTEXT
  5
3D6
330
1F
100
AcDbEntity
  8
WAKU
100
AcDbMText
 10
613.1276299040637
 20
39.72724776496057
 30
0.0
 40
5.0
 41
10.0
 46
0.0
 71
     1
 72
     5
  1
図番
  7
WAKU
 73
     1
 44
1.0
  0
MTEXT
  5
3D7
330
1F
100
AcDbEntity
  8
WAKU
100
AcDbMText
 10
570.6335526105394
 20
35.21985575918302
 30
0.0
 40
5.0
 41
190.5002997985425
 46
0.0
 71
     1
 72
     5
  1
1/2（A3）
  7
WAKU
 73
     1
 44
1.0
  0
LINE
  5
3D8
330
1F
100
AcDbEntity
  8
WAKU
100
AcDbLine
 10
809.9999997112918
 20
21.99999929129945
 30
0.0
 11
809.9999997112918
 21
571.9999992912992
 31
0.0
  0
LINE
  5
3D9
330
1F
100
AcDbEntity
  8
WAKU
100
AcDbLine
 10
809.9999997112918
 20
571.9999992912992
 30
0.0
 11
29.99999971129182
 21
571.9999992912992
 31
0.0
  0
MTEXT
  5
523
330
1F
100
AcDbEntity
  8
WAKU
100
AcDbMText
 10
293.7861823457974
 20
39.85062828628925
 30
0.0
 40
5.0
 41
202.3305186377118
 46
19.99999999999977
 71
     1
 72
     5
  1
アイジールーフ　スーパーガルテクト　改修(合板下地工法(カバー))\P流れと平行な壁02（改修用壁押えD(Ⅱ)、C型捨板、段付面戸D）
  7
WAKU
 73
     1
 44
1.0
1001
ACAD
1000
ACAD_MTEXT_DEFINED_HEIGHT_BEGIN
1070
    46
1040
19.99999999999977
1000
ACAD_MTEXT_DEFINED_HEIGHT_END
  0
LWPOLYLINE
  5
547
330
1F
100
AcDbEntity
  8
AM_CL
100
AcDbPolyline
 90
        4
 70
     1
 43
0.0
 10
-0.0000002887081791
 20
-0.0000007087007816
 10
839.9999997112917
 20
-0.0000007087007816
 10
839.9999997112917
 20
593.9999992912992
 10
-0.0000002887081791
 20
593.9999992912992
  0
TEXT
  5
8DB
330
1F
100
AcDbEntity
  8
0
100
AcDbText
 10
399.9911634706559
 20
188.7906785747285
 30
0.0
 40
8.0
  1
既存下葺き材
100
AcDbText
  0
TEXT
  5
8DD
330
1F
100
AcDbEntity
  8
0
100
AcDbText
 10
155.7423824168765
 20
255.0304165606782
 30
0.0
 40
8.0
  1
既存雨押え
 72
     2
 11
201.6090490835432
 21
255.0304165606782
 31
0.0
100
AcDbText
  0
LINE
  5
8DE
330
1F
100
AcDbEntity
  8
0
100
AcDbLine
 10
411.286619603376
 20
215.3386465131774
 30
0.0
 11
382.6485609322006
 21
264.9412191617965
 31
0.0
  0
LINE
  5
8E1
330
1F
100
AcDbEntity
  8
0
100
AcDbLine
 10
389.766677457917
 20
192.7490247866061
 30
0.0
 11
353.8902329438215
 21
254.8888494799463
 31
0.0
  0
TEXT
  5
8E2
330
1F
100
AcDbEntity
  8
0
100
AcDbText
 10
371.7510420375204
 20
170.0941160565038
 30
0.0
 40
8.0
  1
野地板
100
AcDbText
  0
LINE
  5
8E3
330
1F
100
AcDbEntity
  8
文字
100
AcDbLine
 10
228.981616810179
 20
294.5293689521133
 30
0.0
 11
208.3984364260448
 21
258.8782547454345
 31
0.0
  0
LINE
  5
8E4
330
1F
100
AcDbEntity
  8
文字
 48
0.2499999816274026
100
AcDbLine
 10
208.3984364260448
 20
258.8782547454345
 30
0.0
 11
201.3984364260469
 21
258.8782547454345
 31
0.0
  0
LINE
  5
8E5
330
1F
100
AcDbEntity
  8
0
100
AcDbLine
 10
418.2866196033785
 20
215.3386465131774
 30
0.0
 11
411.286619603376
 21
215.3386465131774
 31
0.0
  0
LINE
  5
8E6
330
1F
100
AcDbEntity
  8
0
100
AcDbLine
 10
396.7666774579193
 20
192.7490247866061
 30
0.0
 11
389.766677457917
 21
192.7490247866061
 31
0.0
  0
LINE
  5
8E7
330
1F
100
AcDbEntity
  8
0
100
AcDbLine
 10
369.1447647901471
 20
174.2127729867126
 30
0.0
 11
362.1447647901446
 21
174.2127729867126
 31
0.0
  0
LINE
  5
8E8
330
1F
100
AcDbEntity
  8
文字
100
AcDbLine
 10
275.6396272868628
 20
160.6692268850387
 30
0.0
 11
268.6396272868603
 21
160.6692268850387
 31
0.0
  0
LINE
  5
8E9
330
1F
100
AcDbEntity
  8
0
100
AcDbLine
 10
268.6396272868603
 20
160.6692268850387
 30
0.0
 11
245.795854635621
 21
200.2358017535436
 31
0.0
  0
LINE
  5
8EC
330
1F
100
AcDbEntity
  8
0
  6
DASHED
 62
     1
 48
0.2
100
AcDbLine
 10
280.5871503758324
 20
288.2362514616342
 30
0.0
 11
686.0861281578475
 21
288.2362514616342
 31
0.0
  0
LINE
  5
8ED
330
1F
100
AcDbEntity
  8
0
 62
     4
100
AcDbLine
 10
277.9985258914003
 20
267.7888494799478
 30
0.0
 11
686.0861281578475
 21
267.7888494799507
 31
0.0
  0
LINE
  5
8EE
330
1F
100
AcDbEntity
  8
0
 62
     4
100
AcDbLine
 10
277.9985258914003
 20
262.5888494799459
 30
0.0
 11
686.0861281578475
 21
262.5888494799489
 31
0.0
  0
LINE
  5
8EF
330
1F
100
AcDbEntity
  8
0
100
AcDbLine
 10
265.3704610694262
 20
182.3888494799401
 30
0.0
 11
265.3704610694262
 21
242.388849479947
 31
0.0
  0
LINE
  5
8F0
330
1F
100
AcDbEntity
  8
0
100
AcDbLine
 10
220.3704610694224
 20
182.3888494799401
 30
0.0
 11
265.3704610694262
 21
182.3888494799401
 31
0.0
  0
LINE
  5
8F1
330
1F
100
AcDbEntity
  8
0
 62
     4
100
AcDbLine
 10
277.9985258914003
 20
257.3888494799463
 30
0.0
 11
686.0861281578475
 21
257.3888494799463
 31
0.0
  0
LINE
  5
8F2
330
1F
100
AcDbEntity
  8
0
100
AcDbLine
 10
686.0861281578475
 20
242.388849479947
 30
0.0
 11
220.3704610694224
 21
242.388849479947
 31
0.0
  0
LINE
  5
8F3
330
1F
100
AcDbEntity
  8
0
100
AcDbLine
 10
265.3704610694262
 20
242.388849479947
 30
0.0
 11
220.3704610694224
 21
182.3888494799401
 31
0.0
  0
LINE
  5
8F4
330
1F
100
AcDbEntity
  8
0
100
AcDbLine
 10
686.0861281578475
 20
245.3888494799486
 30
0.0
 11
220.3704610694224
 21
245.3888494799486
 31
0.0
  0
LINE
  5
8F5
330
1F
100
AcDbEntity
  8
0
100
AcDbLine
 10
686.0861281578475
 20
251.3888494799474
 30
0.0
 11
220.3704610694224
 21
251.3888494799474
 31
0.0
  0
LINE
  5
8F6
330
1F
100
AcDbEntity
  8
0
100
AcDbLine
 10
686.0861281578475
 20
248.3888494799453
 30
0.0
 11
220.3704610694224
 21
248.3888494799481
 31
0.0
  0
LINE
  5
8F7
330
1F
100
AcDbEntity
  8
0
  6
DASHED
 62
     1
 48
0.2
100
AcDbLine
 10
686.0861281578475
 20
254.8888494799491
 30
0.0
 11
220.8704610694196
 21
254.8888494799463
 31
0.0
  0
LINE
  5
8F8
330
1F
100
AcDbEntity
  8
0
 62
     4
100
AcDbLine
 10
337.3856224055085
 20
255.7388494799467
 30
0.0
 11
349.4021694055109
 21
255.7388494799467
 31
0.0
  0
LINE
  5
8F9
330
1F
100
AcDbEntity
  8
0
 62
     4
100
AcDbLine
 10
337.3856224055085
 20
255.3888494799481
 30
0.0
 11
349.4021694055109
 21
255.3888494799481
 31
0.0
  0
LINE
  5
8FA
330
1F
100
AcDbEntity
  8
0
 62
     4
100
AcDbLine
 10
327.3856224055089
 20
255.7388494799467
 30
0.0
 11
332.718717405505
 21
255.7388494799467
 31
0.0
  0
LINE
  5
8FB
330
1F
100
AcDbEntity
  8
0
 62
     4
100
AcDbLine
 10
327.3856224055089
 20
255.3888494799481
 30
0.0
 11
332.718717405505
 21
255.3888494799481
 31
0.0
  0
ARC
  5
8FC
330
1F
100
AcDbEntity
  8
0
 62
     4
100
AcDbCircle
 10
332.718717405505
 20
256.3888494799472
 30
0.0
 40
0.650000000000074
100
AcDbArc
 50
270.0
 51
314.9999999998598
  0
ARC
  5
8FD
330
1F
100
AcDbEntity
  8
0
 62
     4
100
AcDbCircle
 10
337.3856224055085
 20
256.3888494799472
 30
0.0
 40
1.000000000000113
100
AcDbArc
 50
225.0000000001401
 51
270.0
  0
ARC
  5
8FE
330
1F
100
AcDbEntity
  8
0
 62
     4
100
AcDbCircle
 10
337.3856224055085
 20
256.3888494799472
 30
0.0
 40
0.650000000000074
100
AcDbArc
 50
225.0000000001401
 51
270.0
  0
ARC
  5
8FF
330
1F
100
AcDbEntity
  8
0
 62
     4
100
AcDbCircle
 10
332.718717405505
 20
256.3888494799472
 30
0.0
 40
1.000000000000113
100
AcDbArc
 50
270.0
 51
314.9999999998598
  0
LINE
  5
900
330
1F
100
AcDbEntity
  8
0
 62
     4
100
AcDbLine
 10
334.5925504055137
 20
256.8484684799456
 30
0.0
 11
333.4258244055125
 21
255.6817424799489
 31
0.0
  0
ARC
  5
901
330
1F
100
AcDbEntity
  8
0
 62
     4
100
AcDbCircle
 10
335.0521694055076
 20
256.3888494799472
 30
0.0
 40
0.650000000000074
100
AcDbArc
 50
45.00000000014012
 51
134.9999999998598
  0
LINE
  5
902
330
1F
100
AcDbEntity
  8
0
 62
     4
100
AcDbLine
 10
335.511789405509
 20
256.8484684799456
 30
0.0
 11
336.6785154055101
 21
255.6817424799489
 31
0.0
  0
ARC
  5
903
330
1F
100
AcDbEntity
  8
0
 62
     4
100
AcDbCircle
 10
335.0521694055076
 20
256.3888494799472
 30
0.0
 40
1.000000000000113
100
AcDbArc
 50
45.00000000014012
 51
134.9999999998598
  0
LINE
  5
904
330
1F
100
AcDbEntity
  8
0
 62
     4
100
AcDbLine
 10
334.3450624055092
 20
257.0959564799456
 30
0.0
 11
333.178336405508
 21
255.9292304799443
 31
0.0
  0
ARC
  5
905
330
1F
100
AcDbEntity
  8
0
 62
     4
100
AcDbCircle
 10
322.7187174055055
 20
256.3888494799472
 30
0.0
 40
0.650000000000074
100
AcDbArc
 50
270.0
 51
314.9999999998598
  0
ARC
  5
906
330
1F
100
AcDbEntity
  8
0
 62
     4
100
AcDbCircle
 10
327.3856224055089
 20
256.3888494799472
 30
0.0
 40
0.650000000000074
100
AcDbArc
 50
225.0000000001401
 51
270.0
  0
LINE
  5
90A
330
1F
100
AcDbEntity
  8
0
 62
     4
100
AcDbLine
 10
325.5117894055093
 20
256.8484684799456
 30
0.0
 11
326.6785154055106
 21
255.6817424799489
 31
0.0
  0
ARC
  5
90B
330
1F
100
AcDbEntity
  8
0
 62
     4
100
AcDbCircle
 10
325.0521694055078
 20
256.3888494799472
 30
0.0
 40
0.650000000000074
100
AcDbArc
 50
45.00000000014012
 51
134.9999999998598
  0
LINE
  5
90C
330
1F
100
AcDbEntity
  8
0
 62
     4
100
AcDbLine
 10
324.3450624055097
 20
257.0959564799456
 30
0.0
 11
323.1783364055039
 21
255.9292304799443
 31
0.0
  0
ARC
  5
90D
330
1F
100
AcDbEntity
  8
0
 62
     4
100
AcDbCircle
 10
325.0521694055078
 20
256.3888494799472
 30
0.0
 40
1.000000000000113
100
AcDbArc
 50
45.00000000014012
 51
134.9999999998598
  0
ARC
  5
90F
330
1F
100
AcDbEntity
  8
0
 62
     4
100
AcDbCircle
 10
349.4021694055109
 20
256.3888494799472
 30
0.0
 40
0.650000000000074
100
AcDbArc
 50
270.0
 51
90.0
  0
ARC
  5
910
330
1F
100
AcDbEntity
  8
0
 62
     4
100
AcDbCircle
 10
349.4021694055109
 20
256.3888494799472
 30
0.0
 40
1.000000000000113
100
AcDbArc
 50
270.0
 51
90.0
  0
LINE
  5
911
330
1F
100
AcDbEntity
  8
0
 62
     4
100
AcDbLine
 10
345.4021694055057
 20
257.0388494799478
 30
0.0
 11
349.4021694055109
 21
257.0388494799478
 31
0.0
  0
LINE
  5
912
330
1F
100
AcDbEntity
  8
0
 62
     4
100
AcDbLine
 10
345.4021694055057
 20
257.3888494799463
 30
0.0
 11
345.4021694055057
 21
257.0388494799478
 31
0.0
  0
LINE
  5
919
330
1F
100
AcDbEntity
  8
0
 62
     4
100
AcDbLine
 10
302.3856224055007
 20
255.7388494799467
 30
0.0
 11
322.7187174055055
 21
255.7388494799467
 31
0.0
  0
LINE
  5
91A
330
1F
100
AcDbEntity
  8
0
 62
     4
100
AcDbLine
 10
302.3856224055007
 20
255.3888494799481
 30
0.0
 11
322.7187174055055
 21
255.3888494799481
 31
0.0
  0
LINE
  5
91B
330
1F
100
AcDbEntity
  8
0
 62
     4
100
AcDbLine
 10
292.3856224055012
 20
255.3888494799481
 30
0.0
 11
297.7187174054973
 21
255.3888494799481
 31
0.0
  0
LINE
  5
91C
330
1F
100
AcDbEntity
  8
0
 62
     4
100
AcDbLine
 10
292.3856224055012
 20
255.7388494799467
 30
0.0
 11
297.7187174054973
 21
255.7388494799467
 31
0.0
  0
ARC
  5
91D
330
1F
100
AcDbEntity
  8
0
 62
     4
100
AcDbCircle
 10
297.7187174054973
 20
256.3888494799472
 30
0.0
 40
0.650000000000074
100
AcDbArc
 50
270.0
 51
314.9999999998598
  0
ARC
  5
91F
330
1F
100
AcDbEntity
  8
0
 62
     4
100
AcDbCircle
 10
297.7187174054973
 20
256.3888494799472
 30
0.0
 40
1.000000000000113
100
AcDbArc
 50
270.0
 51
314.9999999998598
  0
ARC
  5
920
330
1F
100
AcDbEntity
  8
0
 62
     4
100
AcDbCircle
 10
302.3856224055007
 20
256.3888494799472
 30
0.0
 40
1.000000000000113
100
AcDbArc
 50
225.0000000001401
 51
270.0
  0
LINE
  5
922
330
1F
100
AcDbEntity
  8
0
 62
     4
100
AcDbLine
 10
300.5117894055013
 20
256.8484684799456
 30
0.0
 11
301.6785154055024
 21
255.6817424799489
 31
0.0
  0
ARC
  5
923
330
1F
100
AcDbEntity
  8
0
 62
     4
100
AcDbCircle
 10
300.0521694054999
 20
256.3888494799472
 30
0.0
 40
1.000000000000113
100
AcDbArc
 50
45.00000000014012
 51
134.9999999998598
  0
ARC
  5
924
330
1F
100
AcDbEntity
  8
0
 62
     4
100
AcDbCircle
 10
300.0521694054999
 20
256.3888494799472
 30
0.0
 40
0.650000000000074
100
AcDbArc
 50
45.00000000014012
 51
134.9999999998598
  0
LINE
  5
925
330
1F
100
AcDbEntity
  8
0
 62
     4
100
AcDbLine
 10
299.3450624055015
 20
257.0959564799456
 30
0.0
 11
298.1783364055002
 21
255.9292304799443
 31
0.0
  0
LINE
  5
926
330
1F
100
AcDbEntity
  8
0
 62
     4
100
AcDbLine
 10
300.759276405498
 20
257.0959564799456
 30
0.0
 11
301.9260024054993
 21
255.9292304799443
 31
0.0
  0
ARC
  5
92B
330
1F
100
AcDbEntity
  8
0
 62
     4
100
AcDbCircle
 10
287.7187174054977
 20
256.3888494799472
 30
0.0
 40
1.000000000000113
100
AcDbArc
 50
270.0
 51
314.9999999998598
  0
LINE
  5
92C
330
1F
100
AcDbEntity
  8
0
 62
     4
100
AcDbLine
 10
289.3450624055017
 20
257.0959564799456
 30
0.0
 11
288.1783364055007
 21
255.9292304799443
 31
0.0
  0
ARC
  5
92D
330
1F
100
AcDbEntity
  8
0
 62
     4
100
AcDbCircle
 10
292.3856224055012
 20
256.3888494799472
 30
0.0
 40
1.000000000000113
100
AcDbArc
 50
225.0000000001401
 51
270.0
  0
ARC
  5
92E
330
1F
100
AcDbEntity
  8
0
 62
     4
100
AcDbCircle
 10
290.0521694055001
 20
256.3888494799472
 30
0.0
 40
0.650000000000074
100
AcDbArc
 50
45.00000000014012
 51
134.9999999998598
  0
ARC
  5
92F
330
1F
100
AcDbEntity
  8
0
 62
     4
100
AcDbCircle
 10
272.401047359683
 20
256.3888494799472
 30
0.0
 40
0.650000000000074
100
AcDbArc
 50
180.0
 51
270.0
  0
ARC
  5
930
330
1F
100
AcDbEntity
  8
0
 62
     4
100
AcDbCircle
 10
272.401047359683
 20
256.3888494799472
 30
0.0
 40
1.000000000000113
100
AcDbArc
 50
180.0
 51
270.0
  0
ARC
  5
931
330
1F
100
AcDbEntity
  8
0
100
AcDbCircle
 10
270.7510473596833
 20
274.7362514616356
 30
0.0
 40
0.650000000000074
100
AcDbArc
 50
0.0
 51
90.0
  0
LINE
  5
932
330
1F
100
AcDbEntity
  8
0
 62
     4
100
AcDbLine
 10
222.4010473596747
 20
275.3862514616361
 30
0.0
 11
270.7510473596833
 21
275.3862514616361
 31
0.0
  0
ARC
  5
933
330
1F
100
AcDbEntity
  8
0
 62
     4
100
AcDbCircle
 10
222.4010473596747
 20
276.3862514616352
 30
0.0
 40
0.650000000000074
100
AcDbArc
 50
180.0
 51
270.0
  0
ARC
  5
934
330
1F
100
AcDbEntity
  8
0
 62
     4
100
AcDbCircle
 10
222.4010473596747
 20
276.3862514616352
 30
0.0
 40
1.000000000000113
100
AcDbArc
 50
180.0
 51
270.0
  0
LINE
  5
935
330
1F
100
AcDbEntity
  8
0
 62
     4
100
AcDbLine
 10
221.7510473596787
 20
276.3862514616352
 30
0.0
 11
221.7510473596787
 21
344.3787244411798
 31
0.0
  0
LINE
  5
936
330
1F
100
AcDbEntity
  8
0
 62
     4
100
AcDbLine
 10
221.4010473596711
 20
276.3862514616352
 30
0.0
 11
221.4010473596711
 21
344.3787244411798
 31
0.0
  0
LINE
  5
937
330
1F
100
AcDbEntity
  8
0
 62
     4
100
AcDbLine
 10
223.0510473596705
 20
340.3787244411768
 30
0.0
 11
223.0510473596705
 21
344.3787244411798
 31
0.0
  0
LINE
  5
938
330
1F
100
AcDbEntity
  8
0
 62
     4
100
AcDbLine
 10
223.4010473596691
 20
340.3787244411768
 30
0.0
 11
223.0510473596705
 21
340.3787244411768
 31
0.0
  0
ARC
  5
939
330
1F
100
AcDbEntity
  8
0
 62
     4
100
AcDbCircle
 10
222.4010473596747
 20
344.3787244411798
 30
0.0
 40
0.650000000000074
100
AcDbArc
 50
0.0
 51
180.0
  0
LINE
  5
93B
330
1F
100
AcDbEntity
  8
0
 62
     4
100
AcDbLine
 10
223.4010473596691
 20
296.2405345616627
 30
0.0
 11
223.4010473596691
 21
366.3577348053656
 31
0.0
  0
LINE
  5
93C
330
1F
100
AcDbEntity
  8
0
 62
     4
100
AcDbLine
 10
225.4010473596764
 20
362.3577348053649
 30
0.0
 11
225.4010473596764
 21
366.3577348053656
 31
0.0
  0
LINE
  5
93D
330
1F
100
AcDbEntity
  8
0
 62
     4
100
AcDbLine
 10
225.4010473596764
 20
362.3577348053649
 30
0.0
 11
225.0510473596778
 21
362.3577348053649
 31
0.0
  0
ARC
  5
93E
330
1F
100
AcDbEntity
  8
0
 62
     4
100
AcDbCircle
 10
224.4010473596727
 20
366.3577348053656
 30
0.0
 40
0.650000000000074
100
AcDbArc
 50
0.0
 51
180.0
  0
LINE
  5
93F
330
1F
100
AcDbEntity
  8
0
 62
     4
100
AcDbLine
 10
225.0510473596778
 20
362.3577348053649
 30
0.0
 11
225.0510473596778
 21
366.3577348053656
 31
0.0
  0
ARC
  5
940
330
1F
100
AcDbEntity
  8
0
 62
     4
100
AcDbCircle
 10
224.4010473596727
 20
366.3577348053656
 30
0.0
 40
1.000000000000113
100
AcDbArc
 50
0.0
 51
180.0
  0
LINE
  5
941
330
1F
100
AcDbEntity
  8
0
  6
DASHED
 62
     1
 48
0.2
100
AcDbLine
 10
220.8704610694196
 20
456.8004833113213
 30
0.0
 11
220.8704610694242
 21
254.8888494799486
 31
0.0
  0
LINE
  5
943
330
1F
100
AcDbEntity
  8
0
100
AcDbLine
 10
226.40104735968
 20
516.0074923867036
 30
0.0
 11
226.40104735968
 21
306.0862514616343
 31
0.0
  0
LINE
  5
944
330
1F
100
AcDbEntity
  8
0
100
AcDbLine
 10
256.4010473596799
 20
516.0074923867036
 30
0.0
 11
256.40104735968
 21
306.0862514616343
 31
0.0
  0
LINE
  5
945
330
1F
100
AcDbEntity
  8
0
100
AcDbLine
 10
226.40104735968
 20
306.0862514616343
 30
0.0
 11
256.40104735968
 21
306.0862514616343
 31
0.0
  0
LINE
  5
949
330
1F
100
AcDbEntity
  8
0
100
AcDbLine
 10
686.0861281578475
 20
284.7362514616331
 30
0.0
 11
224.7769676744456
 21
284.7362514616331
 31
0.0
  0
LINE
  5
94A
330
1F
100
AcDbEntity
  8
0
100
AcDbLine
 10
686.0861281578475
 20
281.7362514616335
 30
0.0
 11
224.7769676744456
 21
281.7362514616335
 31
0.0
  0
LINE
  5
94B
330
1F
100
AcDbEntity
  8
0
100
AcDbLine
 10
686.0861281578475
 20
287.7362514616318
 30
0.0
 11
224.7769676744456
 21
287.7362514616347
 31
0.0
  0
LINE
  5
94C
330
1F
100
AcDbEntity
  8
0
100
AcDbLine
 10
686.0861281578475
 20
275.7362514616318
 30
0.0
 11
224.7769676744456
 21
275.7362514616346
 31
0.0
  0
LINE
  5
95F
330
1F
100
AcDbEntity
  8
0
 62
     4
100
AcDbLine
 10
266.4010473596795
 20
255.3888494799481
 30
0.0
 11
221.4010473596711
 21
255.3888494799481
 31
0.0
  0
TEXT
  5
960
330
1F
100
AcDbEntity
  8
0
100
AcDbText
 10
279.3757980383459
 20
158.139660640625
 30
0.0
 40
8.0
  1
たる木
100
AcDbText
  0
LINE
  5
962
330
1F
100
AcDbEntity
  8
0
100
AcDbLine
 10
221.4010473596711
 20
255.3888494799481
 30
0.0
 11
221.4010473596711
 21
273.3888494799515
 31
0.0
  0
LINE
  5
964
330
1F
100
AcDbEntity
  8
0
100
AcDbLine
 10
221.4010473596711
 20
273.3888494799515
 30
0.0
 11
266.4010473596795
 21
273.3888494799515
 31
0.0
  0
LINE
  5
966
330
1F
100
AcDbEntity
  8
0
100
AcDbLine
 10
266.4010473596795
 20
273.3888494799515
 30
0.0
 11
221.4010473596711
 21
255.3888494799481
 31
0.0
  0
LINE
  5
967
330
1F
100
AcDbEntity
  8
0
 62
     4
100
AcDbLine
 10
266.4010473596795
 20
273.3888494799515
 30
0.0
 11
266.4010473596795
 21
255.3888494799481
 31
0.0
  0
LINE
  5
968
330
1F
100
AcDbEntity
  8
0
100
AcDbLine
 10
362.1447647901446
 20
174.2127729867126
 30
0.0
 11
319.9837650327665
 21
247.2377666644007
 31
0.0
  0
TEXT
  5
969
330
1F
100
AcDbEntity
  8
0
100
AcDbText
 10
420.8451271737258
 20
211.6050608626661
 30
0.0
 40
8.0
  1
既存屋根材
100
AcDbText
  0
LINE
  5
96A
330
1F
100
AcDbEntity
  8
0
 62
     4
100
AcDbLine
 10
277.9985258914003
 20
272.9888494799474
 30
0.0
 11
686.0861281578475
 21
272.9888494799474
 31
0.0
  0
LINE
  5
96B
330
1F
100
AcDbEntity
  8
0
 62
     4
100
AcDbLine
 10
277.9985258914003
 20
272.9888494799474
 30
0.0
 11
277.9985258914003
 21
257.3888494799463
 31
0.0
  0
LINE
  5
974
330
1F
100
AcDbEntity
  8
0
100
AcDbLine
 10
686.0861281578475
 20
254.388849479947
 30
0.0
 11
220.3704610694224
 21
254.388849479947
 31
0.0
  0
LINE
  5
97C
330
1F
100
AcDbEntity
  8
0
 62
     4
100
AcDbLine
 10
335.759276405506
 20
257.0959564799456
 30
0.0
 11
336.926002405507
 21
255.9292304799443
 31
0.0
  0
ARC
  5
981
330
1F
100
AcDbEntity
  8
0
 62
     4
100
AcDbCircle
 10
322.7187174055055
 20
256.3888494799472
 30
0.0
 40
1.000000000000113
100
AcDbArc
 50
270.0
 51
314.9999999998598
  0
LINE
  5
982
330
1F
100
AcDbEntity
  8
0
 62
     4
100
AcDbLine
 10
324.5925504055142
 20
256.8484684799456
 30
0.0
 11
323.4258244055084
 21
255.6817424799489
 31
0.0
  0
ARC
  5
983
330
1F
100
AcDbEntity
  8
0
 62
     4
100
AcDbCircle
 10
327.3856224055089
 20
256.3888494799472
 30
0.0
 40
1.000000000000113
100
AcDbArc
 50
225.0000000001401
 51
270.0
  0
LINE
  5
988
330
1F
100
AcDbEntity
  8
0
 62
     4
100
AcDbLine
 10
325.7592764055062
 20
257.0959564799456
 30
0.0
 11
326.9260024055075
 21
255.9292304799443
 31
0.0
  0
LINE
  5
989
330
1F
100
AcDbEntity
  8
0
 62
     4
100
AcDbLine
 10
345.4021694055057
 20
257.3888494799463
 30
0.0
 11
349.4021694055109
 21
257.3888494799463
 31
0.0
  0
ARC
  5
98F
330
1F
100
AcDbEntity
  8
0
 62
     4
100
AcDbCircle
 10
302.3856224055007
 20
256.3888494799472
 30
0.0
 40
0.650000000000074
100
AcDbArc
 50
225.0000000001401
 51
270.0
  0
LINE
  5
990
330
1F
100
AcDbEntity
  8
0
 62
     4
100
AcDbLine
 10
299.592550405506
 20
256.8484684799456
 30
0.0
 11
298.4258244055047
 21
255.6817424799489
 31
0.0
  0
ARC
  5
991
330
1F
100
AcDbEntity
  8
0
 62
     4
100
AcDbCircle
 10
292.3856224055012
 20
256.3888494799472
 30
0.0
 40
0.650000000000074
100
AcDbArc
 50
225.0000000001401
 51
270.0
  0
ARC
  5
992
330
1F
100
AcDbEntity
  8
0
 62
     4
100
AcDbCircle
 10
287.7187174054977
 20
256.3888494799472
 30
0.0
 40
0.650000000000074
100
AcDbArc
 50
270.0
 51
314.9999999998598
  0
LINE
  5
993
330
1F
100
AcDbEntity
  8
0
 62
     4
100
AcDbLine
 10
289.5925504055063
 20
256.8484684799456
 30
0.0
 11
288.4258244055052
 21
255.6817424799489
 31
0.0
  0
LINE
  5
994
330
1F
100
AcDbEntity
  8
0
 62
     4
100
AcDbLine
 10
290.5117894055015
 20
256.8484684799456
 30
0.0
 11
291.6785154055028
 21
255.6817424799489
 31
0.0
  0
ARC
  5
995
330
1F
100
AcDbEntity
  8
0
 62
     4
100
AcDbCircle
 10
290.0521694055001
 20
256.3888494799472
 30
0.0
 40
1.000000000000113
100
AcDbArc
 50
45.00000000014012
 51
134.9999999998598
  0
LINE
  5
996
330
1F
100
AcDbEntity
  8
0
 62
     4
100
AcDbLine
 10
290.7592764054984
 20
257.0959564799456
 30
0.0
 11
291.9260024054997
 21
255.9292304799443
 31
0.0
  0
LINE
  5
997
330
1F
100
AcDbEntity
  8
0
 62
     4
100
AcDbLine
 10
272.401047359683
 20
255.7388494799467
 30
0.0
 11
287.7187174054977
 21
255.7388494799467
 31
0.0
  0
LINE
  5
998
330
1F
100
AcDbEntity
  8
0
 62
     4
100
AcDbLine
 10
272.401047359683
 20
255.3888494799481
 30
0.0
 11
287.7187174054977
 21
255.3888494799481
 31
0.0
  0
LINE
  5
999
330
1F
100
AcDbEntity
  8
0
 62
     4
100
AcDbLine
 10
271.4010473596793
 20
274.7362514616356
 30
0.0
 11
271.4010473596793
 21
256.3888494799472
 31
0.0
  0
LINE
  5
99A
330
1F
100
AcDbEntity
  8
0
 62
     4
100
AcDbLine
 10
271.751047359687
 20
274.7362514616356
 30
0.0
 11
271.7510473596778
 21
256.3888494799472
 31
0.0
  0
ARC
  5
99B
330
1F
100
AcDbEntity
  8
0
100
AcDbCircle
 10
270.7510473596833
 20
274.7362514616356
 30
0.0
 40
1.000000000000113
100
AcDbArc
 50
0.0
 51
90.0
  0
LINE
  5
99C
330
1F
100
AcDbEntity
  8
0
 62
     4
100
AcDbLine
 10
222.4010473596747
 20
275.7362514616346
 30
0.0
 11
270.7510473596833
 21
275.7362514616346
 31
0.0
  0
ARC
  5
9A2
330
1F
100
AcDbEntity
  8
0
 62
     4
100
AcDbCircle
 10
222.4010473596747
 20
344.3787244411798
 30
0.0
 40
1.000000000000113
100
AcDbArc
 50
0.0
 51
180.0
  0
LINE
  5
9A6
330
1F
100
AcDbEntity
  8
0
 62
     4
100
AcDbLine
 10
223.7510473596676
 20
296.2405345616627
 30
0.0
 11
223.7510473596767
 21
366.3577348053656
 31
0.0
  0
LINE
  5
9AB
330
1F
100
AcDbEntity
  8
0
100
AcDbLine
 10
220.3704610694168
 20
516.0074923867036
 30
0.0
 11
220.3704610694269
 21
139.7639207791668
 31
0.0
  0
LINE
  5
9B0
330
1F
100
AcDbEntity
  8
0
  6
DASHED
 62
     1
 48
0.2
100
AcDbLine
 10
225.9010473596781
 20
516.0074923867036
 30
0.0
 11
225.9010473596782
 21
306.0862514616343
 31
0.0
  0
LINE
  5
9B4
330
1F
100
AcDbEntity
  8
0
100
AcDbLine
 10
224.7769676744456
 20
287.7362514616347
 30
0.0
 11
224.7769676744456
 21
275.7362514616346
 31
0.0
  0
LINE
  5
9B5
330
1F
100
AcDbEntity
  8
0
100
AcDbLine
 10
686.0861281578475
 20
278.7362514616342
 30
0.0
 11
224.7769676744456
 21
278.7362514616342
 31
0.0
  0
LINE
  5
9E0
330
1F
100
AcDbEntity
  8
0
 62
     4
100
AcDbLine
 10
223.967918284756
 20
295.9717483814903
 30
0.0
 11
253.7126160211294
 21
289.5390078220533
 31
0.0
  0
LINE
  5
9E1
330
1F
100
AcDbEntity
  8
0
 62
     4
100
AcDbLine
 10
223.8939358257749
 20
295.6296568794607
 30
0.0
 11
253.6752020945521
 21
289.1890078220548
 31
0.0
  0
ARC
  5
9E2
330
1F
100
AcDbEntity
  8
0
 62
     4
100
AcDbCircle
 10
224.0260473596691
 20
296.2405345616627
 30
0.0
 40
0.6249999999999764
100
AcDbArc
 50
180.0
 51
257.7968545812713
  0
ARC
  5
9E3
330
1F
100
AcDbEntity
  8
0
 62
     4
100
AcDbCircle
 10
224.0260473596691
 20
296.2405345616627
 30
0.0
 40
0.2750000000014448
100
AcDbArc
 50
180.0
 51
257.7968545812713
  0
LINE
  5
9E4
330
1F
100
AcDbEntity
  8
0
 62
     4
100
AcDbLine
 10
253.6752020945521
 20
289.1890078220548
 30
0.0
 11
275.6386711510593
 21
289.1890078220548
 31
0.0
  0
LINE
  5
9E5
330
1F
100
AcDbEntity
  8
0
 62
     4
100
AcDbLine
 10
253.7126160211294
 20
289.5390078220533
 30
0.0
 11
275.6386711510593
 21
289.5390078220556
 31
0.0
  0
LINE
  5
9E7
330
1F
100
AcDbEntity
  8
0
 62
     4
100
AcDbLine
 10
275.6386711510593
 20
289.1890078220548
 30
0.0
 11
275.6386711510593
 21
289.5390078220533
 31
0.0
  0
TEXT
  5
C03
330
1F
100
AcDbEntity
  8
WAKU
100
AcDbText
 10
517.0955965898809
 20
78.49510384391186
 30
0.0
 40
5.0
  1
流れ長さ
  7
WAKU
100
AcDbText
  0
TEXT
  5
C04
330
1F
100
AcDbEntity
  8
WAKU
100
AcDbText
 10
708.3545903990126
 20
70.73441150501571
 30
0.0
 40
5.0
  1
改質アスファルトルーフィング
  7
WAKU
100
AcDbText
  0
TEXT
  5
C05
330
1F
100
AcDbEntity
  8
WAKU
100
AcDbText
 10
517.0955965898809
 20
86.55719081091495
 30
0.0
 40
5.0
  1
勾配
  7
WAKU
100
AcDbText
  0
TEXT
  5
C06
330
1F
100
AcDbEntity
  8
WAKU
100
AcDbText
 10
517.0955965898809
 20
70.73441150501571
 30
0.0
 40
5.0
  1
下葺き材
  7
WAKU
100
AcDbText
  0
TEXT
  5
C07
330
1F
100
AcDbEntity
  8
WAKU
100
AcDbText
 10
566.3326613421359
 20
78.49510384391186
 30
0.0
 40
5.0
  1
7ｍ以下
  7
WAKU
100
AcDbText
  0
TEXT
  5
C08
330
1F
100
AcDbEntity
  8
WAKU
100
AcDbText
 10
566.3326613421359
 20
70.73441150501571
 30
0.0
 40
5.0
  1
粘着層付き改質アスファルトルーフィング
  7
WAKU
100
AcDbText
  0
TEXT
  5
C09
330
1F
100
AcDbEntity
  8
WAKU
100
AcDbText
 10
708.3545903990126
 20
78.72727892447642
 30
0.0
 40
5.0
  1
20ｍ以下
  7
WAKU
100
AcDbText
  0
LINE
  5
C0A
330
1F
100
AcDbEntity
  8
WAKU
100
AcDbLine
 10
515.240636391648
 20
93.03959789782197
 30
0.0
 11
515.240636391648
 21
61.03959789782198
 31
0.0
  0
LINE
  5
C0B
330
1F
100
AcDbEntity
  8
0
100
AcDbLine
 10
799.9999997112918
 20
93.03959789782197
 30
0.0
 11
799.9999997112918
 21
61.03959789782198
 31
0.0
  0
LINE
  5
C0C
330
1F
100
AcDbEntity
  8
WAKU
100
AcDbLine
 10
799.9999997112918
 20
69.03959789782198
 30
0.0
 11
515.240636391648
 21
69.03959789782198
 31
0.0
  0
LINE
  5
C0D
330
1F
100
AcDbEntity
  8
WAKU
100
AcDbLine
 10
799.9999997112918
 20
77.03959789782198
 30
0.0
 11
515.240636391648
 21
77.03959789782198
 31
0.0
  0
LINE
  5
C0E
330
1F
100
AcDbEntity
  8
WAKU
100
AcDbLine
 10
799.9999997112918
 20
85.03959789782198
 30
0.0
 11
515.240636391648
 21
85.03959789782198
 31
0.0
  0
LINE
  5
C0F
330
1F
100
AcDbEntity
  8
WAKU
100
AcDbLine
 10
799.9999997112918
 20
93.03959789782197
 30
0.0
 11
515.240636391648
 21
93.03959789782197
 31
0.0
  0
LINE
  5
C10
330
1F
100
AcDbEntity
  8
WAKU
100
AcDbLine
 10
564.8307402818845
 20
93.03959789782197
 30
0.0
 11
564.8307402818845
 21
61.03959789782198
 31
0.0
  0
LINE
  5
C11
330
1F
100
AcDbEntity
  8
WAKU
100
AcDbLine
 10
707.8018716435235
 20
93.03959789782197
 30
0.0
 11
707.8018716435235
 21
61.03959789782198
 31
0.0
  0
TEXT
  5
C12
330
1F
100
AcDbEntity
  8
WAKU
100
AcDbText
 10
513.3297022101279
 20
104.6186652745802
 30
0.0
 40
5.0
  1
・勾配によって使用する下葺き材が異なりますので、施工前に下葺き材の種類を確認してください。
  7
WAKU
100
AcDbText
  0
TEXT
  5
C13
330
1F
100
AcDbEntity
  8
WAKU
100
AcDbText
 10
566.3326613421359
 20
86.0163644859196
 30
0.0
 40
5.0
  1
2.5寸～3.5寸未満
  7
WAKU
100
AcDbText
  0
TEXT
  5
C14
330
1F
100
AcDbEntity
  8
WAKU
100
AcDbText
 10
708.3545903990126
 20
86.40743574639731
 30
0.0
 40
5.0
  1
3.5寸以上
  7
WAKU
100
AcDbText
  0
TEXT
  5
C15
330
1F
100
AcDbEntity
  8
WAKU
100
AcDbText
 10
520.4637102084526
 20
96.33141398394347
 30
0.0
 40
5.0
  1
3.5寸未満の勾配の屋根では、本体の横ジョイント部全てにジョイント下地を施工してください。
  7
WAKU
100
AcDbText
  0
LINE
  5
C16
330
1F
100
AcDbEntity
  8
WAKU
100
AcDbLine
 10
799.9999997112918
 20
61.03959789782198
 30
0.0
 11
515.240636391648
 21
61.03959789782198
 31
0.0
  0
TEXT
  5
C17
330
1F
100
AcDbEntity
  8
WAKU
100
AcDbText
 10
517.0955965898809
 20
62.73441150501572
 30
0.0
 40
5.0
  1
ジョイント下地
  7
WAKU
100
AcDbText
  0
TEXT
  5
C18
330
1F
100
AcDbEntity
  8
WAKU
100
AcDbText
 10
566.3326613421359
 20
62.01636448591961
 30
0.0
 40
5.0
  1
本体の横ジョイント部に施工
  7
WAKU
100
AcDbText
  0
TEXT
  5
C19
330
1F
100
AcDbEntity
  8
WAKU
100
AcDbText
 10
708.3545903990126
 20
62.01636448591961
 30
0.0
 40
5.0
  1
無しも可
  7
WAKU
100
AcDbText
  0
LINE
  5
F80
330
1F
100
AcDbEntity
  8
0
100
AcDbLine
 10
332.8973179322275
 20
320.9118372391454
 30
0.0
 11
332.8973179322275
 21
290.9118372391453
 31
0.0
  0
LINE
  5
F81
330
1F
100
AcDbEntity
  8
0
100
AcDbLine
 10
292.8973179322274
 20
290.9118372391453
 30
0.0
 11
332.8973179322275
 21
290.9118372391453
 31
0.0
  0
LINE
  5
F82
330
1F
100
AcDbEntity
  8
0
100
AcDbLine
 10
292.8973179322274
 20
320.9118372391454
 30
0.0
 11
332.8973179322275
 21
320.9118372391454
 31
0.0
  0
LINE
  5
F83
330
1F
100
AcDbEntity
  8
0
100
AcDbLine
 10
292.8973179322274
 20
290.9118372391453
 30
0.0
 11
332.8973179322275
 21
320.9118372391454
 31
0.0
  0
LINE
  5
F84
330
1F
100
AcDbEntity
  8
0
100
AcDbLine
 10
292.8973179322274
 20
320.9118372391454
 30
0.0
 11
292.8973179322274
 21
290.9118372391453
 31
0.0
  0
LINE
  5
F85
330
1F
100
AcDbEntity
  8
0
100
AcDbLine
 10
273.6567691459149
 20
338.9118372391445
 30
0.0
 11
273.6567691459149
 21
320.9118372391444
 31
0.0
  0
LINE
  5
F86
330
1F
100
AcDbEntity
  8
0
100
AcDbLine
 10
363.6567691459149
 20
320.9118372391444
 30
0.0
 11
363.6567691459149
 21
338.9118372391445
 31
0.0
  0
LINE
  5
F87
330
1F
100
AcDbEntity
  8
0
100
AcDbLine
 10
363.6567691459149
 20
338.9118372391445
 30
0.0
 11
273.6567691459149
 21
320.9118372391444
 31
0.0
  0
LINE
  5
F88
330
1F
100
AcDbEntity
  8
0
100
AcDbLine
 10
363.6567691459149
 20
338.9118372391445
 30
0.0
 11
273.6567691459149
 21
338.9118372391445
 31
0.0
  0
LINE
  5
F89
330
1F
100
AcDbEntity
  8
0
100
AcDbLine
 10
273.6567691459149
 20
320.9118372391444
 30
0.0
 11
363.6567691459149
 21
320.9118372391444
 31
0.0
  0
LINE
  5
F8A
330
1F
100
AcDbEntity
  8
0
100
AcDbLine
 10
336.989552488094
 20
291.4420775540698
 30
0.0
 11
685.8634077615079
 21
291.4420775540698
 31
0.0
  0
LINE
  5
F8B
330
1F
100
AcDbEntity
  8
0
100
AcDbLine
 10
336.989552488094
 20
307.792077554072
 30
0.0
 11
336.989552488094
 21
291.4397287459601
 31
0.0
  0
LINE
  5
F8C
330
1F
100
AcDbEntity
  8
0
100
AcDbLine
 10
336.989552488094
 20
307.792077554072
 30
0.0
 11
685.8634077615079
 21
307.792077554072
 31
0.0
  0
LINE
  5
F8D
330
1F
100
AcDbEntity
  8
0
100
AcDbLine
 10
336.989552488094
 20
307.4420775540698
 30
0.0
 11
685.8634077615079
 21
307.4420775540698
 31
0.0
  0
ARC
  5
FF7
330
1F
100
AcDbEntity
  8
0
 62
     3
100
AcDbCircle
 10
365.2523705810745
 20
320.668663451585
 30
0.0
 40
0.65
100
AcDbArc
 50
180.0
 51
259.9999999999948
  0
ARC
  5
FF8
330
1F
100
AcDbEntity
  8
0
 62
     3
100
AcDbCircle
 10
365.2523705810763
 20
320.668663451585
 30
0.0
 40
1.0
100
AcDbArc
 50
180.0
 51
259.9999999999948
  0
ARC
  5
FF9
330
1F
100
AcDbEntity
  8
0
 62
     3
100
AcDbCircle
 10
363.6023705810767
 20
339.12324869132
 30
0.0
 40
0.65
100
AcDbArc
 50
0.0
 51
90.0
  0
ARC
  5
FFA
330
1F
100
AcDbEntity
  8
0
 62
     3
100
AcDbCircle
 10
363.6023705810749
 20
339.12324869132
 30
0.0
 40
1.0
100
AcDbArc
 50
0.0
 51
90.0
  0
LINE
  5
FFB
330
1F
100
AcDbEntity
  8
0
 62
     3
100
AcDbLine
 10
364.2523705810763
 20
339.12324869132
 30
0.0
 11
364.2523705810763
 21
320.668663451585
 31
0.0
  0
LINE
  5
FFC
330
1F
100
AcDbEntity
  8
0
 62
     3
100
AcDbLine
 10
364.6023705810748
 20
339.1232486913164
 30
0.0
 11
364.6023705810767
 21
320.668663451585
 31
0.0
  0
ARC
  5
FFD
330
1F
100
AcDbEntity
  8
0
 62
     3
100
AcDbCircle
 10
268.5625240862009
 20
408.9677117540182
 30
0.0
 40
0.6973441695142572
100
AcDbArc
 50
262.7154439325376
 51
87.66948533018645
  0
LINE
  5
FFE
330
1F
100
AcDbEntity
  8
0
 62
     3
100
AcDbLine
 10
260.2162432279129
 20
409.3770792779382
 30
0.0
 11
267.8594149158616
 21
408.0293818911655
 31
0.0
  0
ARC
  5
FFF
330
1F
100
AcDbEntity
  8
0
 62
     3
100
AcDbCircle
 10
268.5625240862009
 20
408.9677117540182
 30
0.0
 40
1.047344169514257
100
AcDbArc
 50
262.7154439325376
 51
87.66948533018645
  0
LINE
  5
1000
330
1F
100
AcDbEntity
  8
0
 62
     3
100
AcDbLine
 10
260.6033719124298
 20
410.0141896441805
 30
0.0
 11
268.6051132258908
 21
410.0141896441805
 31
0.0
  0
LINE
  5
1001
330
1F
100
AcDbEntity
  8
0
 62
     3
100
AcDbLine
 10
260.6033719124298
 20
409.6641935907487
 30
0.0
 11
268.5971931193399
 21
409.6641935907487
 31
0.0
  0
LINE
  5
1002
330
1F
100
AcDbEntity
  8
0
 62
     3
100
AcDbLine
 10
260.6033719124298
 20
410.0141896441805
 30
0.0
 11
260.6033719124316
 21
409.6641935907487
 31
0.0
  0
LINE
  5
1003
330
1F
100
AcDbEntity
  8
0
 62
     3
100
AcDbLine
 10
259.4533719124302
 20
408.7369542384826
 30
0.0
 11
259.4533719124283
 21
340.7732486913178
 31
0.0
  0
LINE
  5
1004
330
1F
100
AcDbEntity
  8
0
 62
     3
100
AcDbLine
 10
260.103371912428
 20
340.12324869132
 30
0.0
 11
363.6023705810767
 21
340.1232486913163
 31
0.0
  0
LINE
  5
1005
330
1F
100
AcDbEntity
  8
0
 62
     3
100
AcDbLine
 10
267.8594149158616
 20
408.0293818911655
 30
0.0
 11
268.4297237347637
 21
407.9288210590589
 31
0.0
  0
LINE
  5
1006
330
1F
100
AcDbEntity
  8
0
 62
     3
100
AcDbLine
 10
260.2770200900959
 20
409.7217619914941
 30
0.0
 11
268.4905005969485
 21
408.273503772611
 31
0.0
  0
LINE
  5
1007
330
1F
100
AcDbEntity
  8
0
 62
     3
100
AcDbLine
 10
259.1033719124298
 20
408.7369542384826
 30
0.0
 11
259.1033719124316
 21
340.7732486913178
 31
0.0
  0
ARC
  5
1008
330
1F
100
AcDbEntity
  8
0
 62
     3
100
AcDbCircle
 10
260.1033719124298
 20
408.7369542384826
 30
0.0
 40
1.0
100
AcDbArc
 50
79.99999999999484
 51
180.0
  0
ARC
  5
1009
330
1F
100
AcDbEntity
  8
0
 62
     3
100
AcDbCircle
 10
260.1033719124298
 20
408.7369542384826
 30
0.0
 40
0.65
100
AcDbArc
 50
79.99999999999484
 51
180.0
  0
LINE
  5
100A
330
1F
100
AcDbEntity
  8
0
 62
     3
100
AcDbLine
 10
365.1394992655915
 20
320.0285384121257
 30
0.0
 11
388.70554033605
 21
315.8732095429209
 31
0.0
  0
HATCH
  5
100B
330
1F
100
AcDbEntity
  8
0
 62
   252
 48
0.1
100
AcDbHatch
 10
0.0
 20
0.0
 30
0.0
210
0.0
220
0.0
230
1.0
  2
ANSI31
 70
     0
 71
     0
 91
        1
 92
        7
 72
     1
 73
     1
 93
        8
 10
385.5840998263102
 20
315.3574057809865
 42
0.0
 10
381.1617717957333
 20
316.1371815303196
 42
0.0
 10
381.2225486579146
 20
316.4818642438754
 42
0.0
 10
388.5839866116812
 20
315.1838441158138
 42
1.0
 10
388.6447634738642
 20
315.5285268293678
 42
0.0
 10
365.5840998263102
 20
319.5947440234718
 42
0.0
 10
365.5840998263102
 20
307.792077554072
 42
0.0
 10
385.5840998263102
 20
307.792077554072
 42
0.0
 97
        0
 75
     0
 76
     1
 52
315.0
 41
1.0
 77
     0
 78
     1
 53
0.0
 43
-1866.535376141438
 44
-2338.099729498512
 45
0.0000000000000011
 46
3.174999999999999
 79
     0
 47
0.2042569164032392
 98
        1
 10
367.8757332671821
 20
311.4312133050366
1001
GradientColor1ACI
1070
     5
1001
GradientColor2ACI
1070
     2
1001
ACAD
1010
0.0
1020
0.0
1030
0.0
  0
LINE
  5
100C
330
1F
100
AcDbEntity
  8
0
 62
     3
100
AcDbLine
 10
365.0787224034102
 20
319.6838556985699
 30
0.0
 11
388.6447634738652
 21
315.5285268293687
 31
0.0
  0
LINE
  5
100D
330
1F
100
AcDbEntity
  8
0
 62
     3
100
AcDbLine
 10
381.2225486579155
 20
316.4818642438754
 30
0.0
 11
388.5839866116821
 21
315.1838441158129
 31
0.0
  0
LINE
  5
100E
330
1F
100
AcDbEntity
  8
0
 62
     3
100
AcDbLine
 10
381.1617717957324
 20
316.1371815303196
 30
0.0
 11
388.5232097494991
 21
314.8391614022608
 31
0.0
  0
ARC
  5
100F
330
1F
100
AcDbEntity
  8
0
 62
     3
100
AcDbCircle
 10
388.6143750427727
 20
315.3561854725908
 30
0.0
 40
0.5249999999998238
100
AcDbArc
 50
259.9999999999948
 51
80.00000000004778
  0
ARC
  5
1010
330
1F
100
AcDbEntity
  8
0
 62
     3
100
AcDbCircle
 10
388.6143750427727
 20
315.3561854725908
 30
0.0
 40
0.1749999999998238
100
AcDbArc
 50
259.9999999999948
 51
80.00000000004778
  0
LINE
  5
1011
330
1F
100
AcDbEntity
  8
0
 62
     3
100
AcDbLine
 10
381.2225486579137
 20
316.4818642438718
 30
0.0
 11
381.1617717957324
 21
316.137181530316
 31
0.0
  0
ARC
  5
1012
330
1F
100
AcDbEntity
  8
0
 62
     3
100
AcDbCircle
 10
260.1033719124316
 20
340.7732486913178
 30
0.0
 40
1.0
100
AcDbArc
 50
180.0
 51
270.0
  0
ARC
  5
1013
330
1F
100
AcDbEntity
  8
0
 62
     3
100
AcDbCircle
 10
260.103371912428
 20
340.7732486913178
 30
0.0
 40
0.65
100
AcDbArc
 50
180.0
 51
270.0
  0
LINE
  5
1014
330
1F
100
AcDbEntity
  8
0
 62
     3
100
AcDbLine
 10
260.1033719124316
 20
339.7732486913178
 30
0.0
 11
363.6023705810767
 21
339.7732486913215
 31
0.0
  0
TEXT
  5
1016
330
1F
100
AcDbEntity
  8
0
100
AcDbText
 10
441.8078697743192
 20
362.5878624944273
 30
0.0
 40
8.0
  1
本体
100
AcDbText
  0
TEXT
  5
1017
330
1F
100
AcDbEntity
  8
0
100
AcDbText
 10
419.7355692183122
 20
377.6262287660023
 30
0.0
 40
8.0
  1
段付面戸D
100
AcDbText
  0
TEXT
  5
1018
330
1F
100
AcDbEntity
  8
0
100
AcDbText
 10
402.8916718313276
 20
395.9145976270982
 30
0.0
 40
8.0
  1
C型捨板
100
AcDbText
  0
TEXT
  5
1019
330
1F
100
AcDbEntity
  8
0
100
AcDbText
 10
377.0132985748478
 20
409.3474855479894
 30
0.0
 40
8.0
  1
受木(30×40)
100
AcDbText
  0
TEXT
  5
101A
330
1F
100
AcDbEntity
  8
0
100
AcDbText
 10
348.8749869953281
 20
426.8593359454048
 30
0.0
 40
8.0
  1
受木(18×90)
100
AcDbText
  0
TEXT
  5
101B
330
1F
100
AcDbEntity
  8
0
100
AcDbText
 10
327.9839460408074
 20
450.6574540109491
 30
0.0
 40
8.0
  1
改修用壁押えＤ(Ⅱ)
100
AcDbText
  0
TEXT
  5
101E
330
1F
100
AcDbEntity
  8
0
100
AcDbText
 10
504.1872280934242
 20
332.807723781941
 30
0.0
 40
8.0
  1
下葺き材
100
AcDbText
  0
HATCH
  5
1022
330
1F
100
AcDbEntity
  8
0
 62
     8
100
AcDbHatch
 10
0.0
 20
0.0
 30
0.0
210
0.0
220
0.0
230
1.0
  2
ANSI31
 70
     0
 71
     0
 91
        1
 92
        7
 72
     0
 73
     1
 93
        4
 10
258.6351555439278
 20
399.7551014649003
 10
257.6351555439278
 20
399.7551014649003
 10
257.6351555439278
 20
349.7551014649002
 10
258.6351555439278
 20
349.7551014649002
 97
        0
 75
     0
 76
     1
 52
0.0
 41
0.500000000002965
 77
     0
 78
     1
 53
45.0
 43
4235.915985669964
 44
-4891.078405960918
 45
-1.1225320151403
 46
1.1225320151403
 79
     0
 47
0.0556189776905624
 98
        1
 10
258.0786377335999
 20
373.1374131897906
1001
GradientColor1ACI
1070
     5
1001
GradientColor2ACI
1070
     2
1001
ACAD
1010
0.0
1020
0.0
1030
0.0
  0
LWPOLYLINE
  5
1023
330
1F
100
AcDbEntity
  8
0
 62
     8
100
AcDbPolyline
 90
        4
 70
     1
 43
0.0
 10
257.6351555439278
 20
349.7551014649002
 10
258.6351555439278
 20
349.7551014649002
 10
258.6351555439278
 20
399.7551014649003
 10
257.6351555439278
 20
399.7551014649003
  0
HATCH
  5
1032
330
1F
100
AcDbEntity
  8
0
 62
     9
100
AcDbHatch
 10
0.0
 20
0.0
 30
0.0
210
0.0
220
0.0
230
1.0
  2
ANSI37
 70
     0
 71
     0
 91
        1
 92
        1
 93
        3
 72
     1
 10
256.166939175424
 20
418.9692120301383
 11
256.166939175424
 21
410.0141896441814
 72
     1
 10
256.166939175424
 20
410.0141896441814
 11
268.6051132258926
 21
410.0141896441805
 72
     1
 10
268.6051132258926
 20
410.0141896441805
 11
256.166939175424
 21
418.9692120301383
 97
        0
 75
     1
 76
     1
 52
0.0
 41
1.0
 77
     0
 78
     2
 53
45.0
 43
4705.274974385605
 44
-8465.264636316797
 45
-2.245064030267287
 46
2.245064030267288
 79
     0
 53
135.0
 43
4705.274974385605
 44
-8465.264636316797
 45
-2.245064030267288
 46
-2.245064030267287
 79
     0
 98
        1
 10
260.1261299756989
 20
413.6471137748908
1001
GradientColor1ACI
1070
     5
1001
GradientColor2ACI
1070
     2
1001
ACAD
1010
0.0
1020
0.0
1030
0.0
  0
LINE
  5
1033
330
1F
100
AcDbEntity
  8
0
 62
     9
100
AcDbLine
 10
256.166939175424
 20
418.9692120301374
 30
0.0
 11
268.6051132258926
 21
410.0141896441805
 31
0.0
  0
LINE
  5
1034
330
1F
100
AcDbEntity
  8
0
 62
     9
100
AcDbLine
 10
260.6033719124298
 20
410.0141896441805
 30
0.0
 11
256.166939175424
 21
410.0141896441805
 31
0.0
  0
LWPOLYLINE
  5
1035
330
1F
100
AcDbEntity
  8
0
 62
     2
100
AcDbPolyline
 90
        4
 70
     1
 43
0.0
 10
364.6023705810785
 20
332.4459560714517
 10
364.602370581073
 20
327.3459560714514
 10
365.602370581073
 20
327.3459560714496
 10
365.6023705810785
 20
332.4459560714499
  0
LWPOLYLINE
  5
1036
330
1F
100
AcDbEntity
  8
0
 62
     2
100
AcDbPolyline
 90
        2
 70
     0
 43
0.0
 10
331.6023705810731
 20
328.8209560714863
 10
364.6023705810748
 20
328.8209560714518
  0
LWPOLYLINE
  5
1037
330
1F
100
AcDbEntity
  8
0
 62
     2
100
AcDbPolyline
 90
        2
 70
     0
 43
0.0
 10
364.6023705810776
 20
330.9709560714514
 10
331.6023705810758
 20
330.970956071486
  0
LINE
  5
1038
330
1F
100
AcDbEntity
  8
0
 62
     2
100
AcDbLine
 10
331.6023705810758
 20
330.970956071486
 30
0.0
 11
327.6023705810749
 21
329.8959560714907
 31
0.0
  0
LINE
  5
1039
330
1F
100
AcDbEntity
  8
0
 62
     2
100
AcDbLine
 10
327.6023705810749
 20
329.8959560714907
 30
0.0
 11
331.6023705810731
 21
328.8209560714863
 31
0.0
  0
LINE
  5
105F
330
1F
100
AcDbEntity
  8
0
 62
     2
100
AcDbLine
 10
260.4933719124347
 20
373.9349974200982
 30
0.0
 11
260.4933719124274
 21
379.5349974200949
 31
0.0
  0
LINE
  5
1060
330
1F
100
AcDbEntity
  8
0
 62
     2
100
AcDbLine
 10
259.453371912431
 20
373.9349974200945
 30
0.0
 11
259.4533719124283
 21
379.5349974200967
 31
0.0
  0
LINE
  5
1061
330
1F
100
AcDbEntity
  8
0
 62
     2
100
AcDbLine
 10
260.4933719124347
 20
373.9349974200982
 30
0.0
 11
259.453371912431
 21
373.9349974200945
 31
0.0
  0
LINE
  5
1062
330
1F
100
AcDbEntity
  8
0
 62
     2
100
AcDbLine
 10
259.4533719124338
 20
377.954997420095
 30
0.0
 11
196.8533719124298
 21
377.954997420054
 31
0.0
  0
LINE
  5
1063
330
1F
100
AcDbEntity
  8
0
 62
     2
100
AcDbLine
 10
259.453371912432
 20
375.5149974200945
 30
0.0
 11
196.8533719124316
 21
375.5149974200517
 31
0.0
  0
LINE
  5
1064
330
1F
100
AcDbEntity
  8
0
 62
     2
100
AcDbLine
 10
260.4933719124274
 20
379.5349974200949
 30
0.0
 11
259.4533719124283
 21
379.5349974200967
 31
0.0
  0
LINE
  5
1065
330
1F
100
AcDbEntity
  8
0
 62
     2
100
AcDbLine
 10
192.4533719124301
 20
376.7349974200592
 30
0.0
 11
196.8533719124298
 21
377.954997420064
 31
0.0
  0
LINE
  5
1066
330
1F
100
AcDbEntity
  8
0
 62
     2
100
AcDbLine
 10
192.4533719124301
 20
376.7349974200592
 30
0.0
 11
196.8533719124316
 21
375.5149974200617
 31
0.0
  0
LWPOLYLINE
  5
1067
330
1F
100
AcDbEntity
  8
0
 62
   252
 48
0.1
100
AcDbPolyline
 90
        4
 70
     0
 43
0.0
 10
365.5840998263102
 20
319.5947440234718
 10
365.5840998263102
 20
307.792077554072
 10
385.5840998263102
 20
307.792077554072
 10
385.5840998263102
 20
315.357405780986
  0
LINE
  5
1068
330
1F
100
AcDbEntity
  8
0
100
AcDbLine
 10
340.812841099727
 20
430.2440723203321
 30
0.0
 11
284.7260432489184
 21
333.0988888088882
 31
0.0
  0
LINE
  5
1069
330
1F
100
AcDbEntity
  8
0
100
AcDbLine
 10
347.8128410997269
 20
430.2440723203321
 30
0.0
 11
340.812841099727
 21
430.2440723203321
 31
0.0
  0
TEXT
  5
106A
330
1F
100
AcDbEntity
  8
0
100
AcDbText
 10
311.5126495968218
 20
484.3108260049758
 30
0.0
 40
8.0
  1
シーリング材
100
AcDbText
  0
LINE
  5
106B
330
1F
100
AcDbEntity
  8
0
100
AcDbLine
 10
304.423789205883
 20
488.6053025551466
 30
0.0
 11
260.9321619271232
 21
413.275594404487
 31
0.0
  0
LINE
  5
106C
330
1F
100
AcDbEntity
  8
0
100
AcDbLine
 10
311.423789205883
 20
488.6053025551465
 30
0.0
 11
304.4237892058829
 21
488.6053025551465
 31
0.0
  0
LINE
  5
106D
330
1F
100
AcDbEntity
  8
0
100
AcDbLine
 10
319.6561471800141
 20
454.4209402855545
 30
0.0
 11
259.4533719124283
 21
350.1466747654463
 31
0.0
  0
LINE
  5
106E
330
1F
100
AcDbEntity
  8
0
100
AcDbLine
 10
326.6561471800141
 20
454.4209402855545
 30
0.0
 11
319.6561471800141
 21
454.4209402855545
 31
0.0
  0
LINE
  5
106F
330
1F
100
AcDbEntity
  8
0
100
AcDbLine
 10
308.0613562006577
 20
472.7884053646002
 30
0.0
 11
258.1855948560406
 21
386.4010526495454
 31
0.0
  0
LINE
  5
1070
330
1F
100
AcDbEntity
  8
0
100
AcDbLine
 10
315.0613562006568
 20
472.7884053646002
 30
0.0
 11
308.0613562006568
 21
472.7884053646002
 31
0.0
  0
TEXT
  5
1071
330
1F
100
AcDbEntity
  8
0
100
AcDbText
 10
316.1886664418771
 20
468.6217622637381
 30
0.0
 40
8.0
  1
防水テープD
100
AcDbText
  0
LINE
  5
1072
330
1F
100
AcDbEntity
  8
文字１
100
AcDbLine
 10
434.2564515366547
 20
366.1388184680456
 30
0.0
 11
396.1141377480035
 21
300.0743930678677
 31
0.0
  0
LINE
  5
1073
330
1F
100
AcDbEntity
  8
文字１
100
AcDbLine
 10
441.2564515366555
 20
366.1388184680456
 30
0.0
 11
434.2564515366555
 21
366.1388184680456
 31
0.0
  0
LINE
  5
1074
330
1F
100
AcDbEntity
  8
0
100
AcDbLine
 10
368.195253998344
 20
412.7077559967169
 30
0.0
 11
308.4494592338306
 21
309.2250039259984
 31
0.0
  0
LINE
  5
1075
330
1F
100
AcDbEntity
  8
0
100
AcDbLine
 10
375.195253998344
 20
412.7077559967169
 30
0.0
 11
368.195253998344
 21
412.7077559967169
 31
0.0
  0
LINE
  5
1076
330
1F
100
AcDbEntity
  8
0
100
AcDbLine
 10
496.2954912198704
 20
336.7986582830647
 30
0.0
 11
468.2579725690215
 21
288.2362514616342
 31
0.0
  0
LINE
  5
1077
330
1F
100
AcDbEntity
  8
0
100
AcDbLine
 10
503.2954912198705
 20
336.7986582830647
 30
0.0
 11
496.2954912198704
 21
336.7986582830647
 31
0.0
  0
LINE
  5
1078
330
1F
100
AcDbEntity
  8
文字１
100
AcDbLine
 10
394.6964235118894
 20
399.8269016095126
 30
0.0
 11
347.7832849740262
 21
318.5709621194178
 31
0.0
  0
LINE
  5
1079
330
1F
100
AcDbEntity
  8
0
100
AcDbLine
 10
401.6964235118893
 20
399.8269016095126
 30
0.0
 11
394.6964235118894
 21
399.8269016095126
 31
0.0
  0
LINE
  5
107A
330
1F
100
AcDbEntity
  8
0
100
AcDbLine
 10
412.4212763108683
 20
382.2449680815647
 30
0.0
 11
371.6755152192418
 21
311.6712396778062
 31
0.0
  0
LINE
  5
107B
330
1F
100
AcDbEntity
  8
0
100
AcDbLine
 10
419.4212763108684
 20
382.2449680815647
 30
0.0
 11
412.4212763108683
 21
382.2449680815647
 31
0.0
  0
TEXT
  5
1092
330
1F
100
AcDbEntity
  8
0
100
AcDbText
 10
472.759075344472
 20
349.6330851843151
 30
0.0
 40
8.0
  1
吊り子(現場調達)
100
AcDbText
  0
LINE
  5
1093
330
1F
100
AcDbEntity
  8
0
100
AcDbLine
 10
430.0414412171486
 20
295.980368208778
 30
0.0
 11
463.5142738915073
 21
353.9570150740175
 31
0.0
  0
LINE
  5
1094
330
1F
100
AcDbEntity
  8
0
100
AcDbLine
 10
470.5142738915074
 20
353.9570150740175
 30
0.0
 11
463.5142738915074
 21
353.9570150740175
 31
0.0
  0
LINE
  5
1264
330
1F
100
AcDbEntity
  8
0
  6
DASHED
 62
     1
 48
0.2
100
AcDbLine
 10
256.9010473596772
 20
370.2276849488252
 30
0.0
 11
256.9010473596761
 21
301.2411447655321
 31
0.0
  0
LINE
  5
1265
330
1F
100
AcDbEntity
  8
0
  6
DASHED
 62
     1
 48
0.2
100
AcDbLine
 10
256.9010473596772
 20
301.2411447655321
 30
0.0
 11
280.5871503758335
 21
288.2362514616342
 31
0.0
  0
TEXT
  5
126A
330
1F
100
AcDbEntity
  8
0
100
AcDbText
 10
566.408699127206
 20
321.4756410083157
 30
0.0
 40
8.0
  1
耐水合板
100
AcDbText
  0
LINE
  5
126B
330
1F
100
AcDbEntity
  8
文字
 48
0.2499999816274026
100
AcDbLine
 10
558.111525339665
 20
324.8139157086563
 30
0.0
 11
531.5085734830163
 21
278.7362514616341
 31
0.0
  0
LINE
  5
126F
330
1F
100
AcDbEntity
  8
文字
 48
0.2499999816274026
100
AcDbLine
 10
565.1115253396628
 20
324.8139157086563
 30
0.0
 11
558.111525339665
 21
324.8139157086563
 31
0.0
  0
TEXT
  5
1271
330
1F
100
AcDbEntity
  8
0
100
AcDbText
 10
282.7792051962115
 20
500.98148134872
 30
0.0
 40
8.0
  1
既存外壁材
100
AcDbText
  0
LINE
  5
1272
330
1F
100
AcDbEntity
  8
文字
100
AcDbLine
 10
272.9957271669039
 20
504.7146363360321
 30
0.0
 11
248.6369280285101
 21
462.5239586169727
 31
0.0
  0
LINE
  5
1273
330
1F
100
AcDbEntity
  8
文字
100
AcDbLine
 10
279.9957271669018
 20
504.7146363360321
 30
0.0
 11
272.9957271669039
 21
504.7146363360321
 31
0.0
  0
LINE
  5
14D1
102
{ACAD_REACTORS
330
1509
102
}
330
1F
100
AcDbEntity
  8
役物4
100
AcDbLine
 10
424.0425690596929
 20
302.2961921198549
 30
0.0
 11
435.3695647616761
 21
290.3707320637776
 31
0.0
  0
LINE
  5
14D2
102
{ACAD_REACTORS
330
1509
102
}
330
1F
100
AcDbEntity
  8
役物4
100
AcDbLine
 10
423.788795973834
 20
302.0551543201226
 30
0.0
 11
435.1157916758262
 21
290.1296942640433
 31
0.0
  0
ARC
  5
14D3
102
{ACAD_REACTORS
330
1509
102
}
330
1F
100
AcDbEntity
  8
役物4
100
AcDbCircle
 10
423.4675479974224
 20
301.7500277731371
 30
0.0
 40
0.793060348064195
100
AcDbArc
 50
43.52566483293057
 51
223.5256648328955
  0
ARC
  5
14D4
102
{ACAD_REACTORS
330
1509
102
}
330
1F
100
AcDbEntity
  8
役物4
100
AcDbCircle
 10
423.467548031533
 20
301.7500278055493
 30
0.0
 40
0.4430603010033131
100
AcDbArc
 50
43.52566483293057
 51
223.5256648328955
  0
LINE
  5
14D5
102
{ACAD_REACTORS
330
1509
102
}
330
1F
100
AcDbEntity
  8
役物4
100
AcDbLine
 10
427.4205944260078
 20
296.4365544758297
 30
0.0
 11
422.8925269351585
 21
301.2038634264224
 31
0.0
  0
LINE
  5
14D6
102
{ACAD_REACTORS
330
1509
102
}
330
1F
100
AcDbEntity
  8
役物4
100
AcDbLine
 10
427.6743675426829
 20
296.6775923797801
 30
0.0
 11
423.146300089248
 21
301.4449012909712
 31
0.0
  0
LINE
  5
14D7
102
{ACAD_REACTORS
330
1509
102
}
330
1F
100
AcDbEntity
  8
役物4
100
AcDbLine
 10
458.3414164062302
 20
290.1683736918469
 30
0.0
 11
435.8408576353975
 21
290.1683736918471
 31
0.0
  0
ARC
  5
14D8
102
{ACAD_REACTORS
330
1509
102
}
330
1F
100
AcDbEntity
  8
役物4
100
AcDbCircle
 10
435.8408576353975
 20
290.8183736918498
 30
0.0
 40
0.6500000000027026
100
AcDbArc
 50
223.5256648329282
 51
270.0
  0
LINE
  5
14D9
102
{ACAD_REACTORS
330
1509
102
}
330
1F
100
AcDbEntity
  8
役物4
100
AcDbLine
 10
427.4205944260078
 20
296.4365544758297
 30
0.0
 11
427.6743675426829
 21
296.6775923797801
 31
0.0
  0
LINE
  5
14DA
102
{ACAD_REACTORS
330
1509
102
}
330
1F
100
AcDbEntity
  8
役物4
100
AcDbLine
 10
435.8408576353952
 20
289.818373691843
 30
0.0
 11
458.3414164062302
 21
289.818373691843
 31
0.0
  0
ARC
  5
14DB
102
{ACAD_REACTORS
330
1509
102
}
330
1F
100
AcDbEntity
  8
役物4
100
AcDbCircle
 10
435.8408576353952
 20
290.8183736918472
 30
0.0
 40
1.000000000004157
100
AcDbArc
 50
223.5256648329306
 51
270.0
  0
LINE
  5
14DC
102
{ACAD_REACTORS
330
1509
102
}
330
1F
100
AcDbEntity
  8
役物4
100
AcDbLine
 10
458.3414164062302
 20
289.818373691843
 30
0.0
 11
458.3414164062302
 21
290.1683729899534
 31
0.0
  0
LINE
  5
14DD
102
{ACAD_REACTORS
330
1509
102
}
330
1F
100
AcDbEntity
  8
ビスくぎ
100
AcDbLine
 10
447.054612851257
 20
245.0183736916592
 30
0.0
 11
447.054612851257
 21
290.1683736918469
 31
0.0
  0
LINE
  5
14DE
102
{ACAD_REACTORS
330
1509
102
}
330
1F
100
AcDbEntity
  8
ビスくぎ
100
AcDbLine
 10
444.304612851247
 20
245.0183736916592
 30
0.0
 11
444.304612851247
 21
290.1683736918469
 31
0.0
  0
LINE
  5
14DF
102
{ACAD_REACTORS
330
1509
102
}
330
1F
100
AcDbEntity
  8
ビスくぎ
100
AcDbLine
 10
447.054612851257
 20
245.0183736916592
 30
0.0
 11
445.6796128512531
 21
241.1683736916429
 31
0.0
  0
LINE
  5
14E0
102
{ACAD_REACTORS
330
1509
102
}
330
1F
100
AcDbEntity
  8
ビスくぎ
100
AcDbLine
 10
445.6796128512531
 20
241.1683736916429
 30
0.0
 11
444.304612851247
 21
245.0183736916592
 31
0.0
  0
LINE
  5
14E1
102
{ACAD_REACTORS
330
1509
102
}
330
1F
100
AcDbEntity
  8
ビスくぎ
100
AcDbLine
 10
448.9796128512661
 20
291.1683736918508
 30
0.0
 11
442.3796128512402
 21
291.1683736918508
 31
0.0
  0
LINE
  5
14E2
102
{ACAD_REACTORS
330
1509
102
}
330
1F
100
AcDbEntity
  8
ビスくぎ
100
AcDbLine
 10
448.9796128512661
 20
290.1683736918469
 30
0.0
 11
442.3796128512402
 21
290.1683736918469
 31
0.0
  0
LINE
  5
14E3
102
{ACAD_REACTORS
330
1509
102
}
330
1F
100
AcDbEntity
  8
ビスくぎ
100
AcDbLine
 10
448.9796128512661
 20
290.1683736918469
 30
0.0
 11
448.9796128512661
 21
291.1683736918508
 31
0.0
  0
LINE
  5
14E4
102
{ACAD_REACTORS
330
1509
102
}
330
1F
100
AcDbEntity
  8
ビスくぎ
100
AcDbLine
 10
442.3796128512402
 20
290.1683736918469
 30
0.0
 11
442.3796128512402
 21
291.1683736918508
 31
0.0
  0
LINE
  5
14E5
102
{ACAD_REACTORS
330
1509
102
}
330
1F
100
AcDbEntity
  8
役物3
100
AcDbLine
 10
356.0384030412971
 20
317.2209621194291
 30
0.0
 11
356.0384030412971
 21
316.8709621194291
 31
0.0
  0
LINE
  5
14E6
102
{ACAD_REACTORS
330
1509
102
}
330
1F
100
AcDbEntity
  8
役物3
100
AcDbLine
 10
362.1884030413249
 20
317.2209621194291
 30
0.0
 11
356.0384030412971
 21
317.2209621194291
 31
0.0
  0
LINE
  5
14E7
102
{ACAD_REACTORS
330
1509
102
}
330
1F
100
AcDbEntity
  8
役物3
100
AcDbLine
 10
362.1884030413249
 20
316.8709621194291
 30
0.0
 11
356.0384030412971
 21
316.8709621194291
 31
0.0
  0
LINE
  5
14E8
102
{ACAD_REACTORS
330
1509
102
}
330
1F
100
AcDbEntity
  8
役物3
100
AcDbLine
 10
333.8884030412036
 20
290.5709621193169
 30
0.0
 11
380.7658793252786
 21
290.5709621193206
 31
0.0
  0
LINE
  5
14E9
102
{ACAD_REACTORS
330
1509
102
}
330
1F
100
AcDbEntity
  8
役物3
100
AcDbLine
 10
335.3884030412106
 20
318.5709621194334
 30
0.0
 11
362.1884030413249
 21
318.5709621194334
 31
0.0
  0
LINE
  5
14EA
102
{ACAD_REACTORS
330
1509
102
}
330
1F
100
AcDbEntity
  8
役物3
100
AcDbLine
 10
333.0384030412041
 20
317.7209621194312
 30
0.0
 11
333.0384030412018
 21
291.4209621193154
 31
0.0
  0
LINE
  5
14EB
102
{ACAD_REACTORS
330
1509
102
}
330
1F
100
AcDbEntity
  8
役物3
100
AcDbLine
 10
388.063104869498
 20
295.7740621049529
 30
0.0
 11
381.0572971485075
 21
291.0146670882156
 31
0.0
  0
LINE
  5
14EC
102
{ACAD_REACTORS
330
1509
102
}
330
1F
100
AcDbEntity
  8
役物3
100
AcDbLine
 10
388.2597846638863
 20
295.4845503461574
 30
0.0
 11
381.2539769428958
 21
290.7251553294202
 31
0.0
  0
ARC
  5
14ED
102
{ACAD_REACTORS
330
1509
102
}
330
1F
100
AcDbEntity
  8
役物3
100
AcDbCircle
 10
380.7658793252786
 20
291.4209621193226
 30
0.0
 40
0.850000000003534
100
AcDbArc
 50
270.0
 51
305.6502350645422
  0
ARC
  5
14EE
102
{ACAD_REACTORS
330
1509
102
}
330
1F
100
AcDbEntity
  8
役物3
100
AcDbCircle
 10
380.7658793252786
 20
291.4209621193226
 30
0.0
 40
0.5000000000020788
100
AcDbArc
 50
270.0
 51
305.6502350645422
  0
LINE
  5
14EF
102
{ACAD_REACTORS
330
1509
102
}
330
1F
100
AcDbEntity
  8
役物3
100
AcDbLine
 10
362.1884030413249
 20
318.5709621194334
 30
0.0
 11
333.8884030412081
 21
318.5709621194334
 31
0.0
  0
LINE
  5
14F0
102
{ACAD_REACTORS
330
1509
102
}
330
1F
100
AcDbEntity
  8
役物3
100
AcDbLine
 10
333.3884030411997
 20
317.7209621194312
 30
0.0
 11
333.388403041202
 21
291.4209621193154
 31
0.0
  0
LINE
  5
14F1
102
{ACAD_REACTORS
330
1509
102
}
330
1F
100
AcDbEntity
  8
役物3
100
AcDbLine
 10
333.8884030412081
 20
318.2209621194298
 30
0.0
 11
362.1884030413249
 21
318.2209621194298
 31
0.0
  0
LINE
  5
14F2
102
{ACAD_REACTORS
330
1509
102
}
330
1F
100
AcDbEntity
  8
役物3
100
AcDbLine
 10
333.8884030412036
 20
290.9209621193168
 30
0.0
 11
380.7658793252786
 21
290.9209621192914
 31
0.0
  0
POINT
  5
14F3
102
{ACAD_REACTORS
330
1509
102
}
330
1F
100
AcDbEntity
  8
役物3
100
AcDbPoint
 10
398.4390473884904
 20
290.5709621193133
 30
0.0
  0
LINE
  5
14F4
102
{ACAD_REACTORS
330
1509
102
}
330
1F
100
AcDbEntity
  8
役物3
100
AcDbLine
 10
396.315632272204
 20
290.9209621193095
 30
0.0
 11
432.1856387002773
 21
290.9209621193242
 31
0.0
  0
LINE
  5
14F5
102
{ACAD_REACTORS
330
1509
102
}
330
1F
100
AcDbEntity
  8
役物3
100
AcDbLine
 10
396.315632272204
 20
290.5709621192951
 30
0.0
 11
432.1856387002773
 21
290.5709621193133
 31
0.0
  0
LINE
  5
14F6
102
{ACAD_REACTORS
330
1509
102
}
330
1F
100
AcDbEntity
  8
役物3
100
AcDbLine
 10
424.6671271876975
 20
300.5709621193584
 30
0.0
 11
432.8019447659151
 21
292.0063396329526
 31
0.0
  0
LINE
  5
14F7
102
{ACAD_REACTORS
330
1509
102
}
330
1F
100
AcDbEntity
  8
役物3
100
AcDbLine
 10
424.4133541018451
 20
300.3299243196281
 30
0.0
 11
432.5481716800631
 21
291.7653018332222
 31
0.0
  0
POINT
  5
14F8
102
{ACAD_REACTORS
330
1509
102
}
330
1F
100
AcDbEntity
  8
役物3
100
AcDbPoint
 10
381.038403041401
 20
290.5709621193206
 30
0.0
  0
POINT
  5
14F9
102
{ACAD_REACTORS
330
1509
102
}
330
1F
100
AcDbEntity
  8
役物3
100
AcDbPoint
 10
396.038403041461
 20
290.5737687384177
 30
0.0
  0
LINE
  5
14FA
102
{ACAD_REACTORS
330
1509
102
}
330
1F
100
AcDbEntity
  8
役物3
100
AcDbLine
 10
424.6671271876975
 20
300.5709621193621
 30
0.0
 11
424.4133541018451
 21
300.3299243196281
 31
0.0
  0
ARC
  5
14FB
102
{ACAD_REACTORS
330
1509
102
}
330
1F
100
AcDbEntity
  8
役物3
100
AcDbCircle
 10
362.1884030413249
 20
317.7209621194312
 30
0.0
 40
0.850000000003534
100
AcDbArc
 50
270.0
 51
90.0
  0
ARC
  5
14FC
102
{ACAD_REACTORS
330
1509
102
}
330
1F
100
AcDbEntity
  8
役物3
100
AcDbCircle
 10
362.1884030413249
 20
317.7209621194312
 30
0.0
 40
0.5000000000020788
100
AcDbArc
 50
270.0
 51
90.0
  0
ARC
  5
14FD
102
{ACAD_REACTORS
330
1509
102
}
330
1F
100
AcDbEntity
  8
役物3
100
AcDbCircle
 10
333.8884030412081
 20
317.7209621194312
 30
0.0
 40
0.850000000003534
100
AcDbArc
 50
90.0
 51
180.0
  0
ARC
  5
14FE
102
{ACAD_REACTORS
330
1509
102
}
330
1F
100
AcDbEntity
  8
役物3
100
AcDbCircle
 10
333.8884030412081
 20
317.7209621194312
 30
0.0
 40
0.5000000000020788
100
AcDbArc
 50
90.0
 51
180.0
  0
ARC
  5
14FF
102
{ACAD_REACTORS
330
1509
102
}
330
1F
100
AcDbEntity
  8
役物3
100
AcDbCircle
 10
333.8884030412036
 20
291.4209621193154
 30
0.0
 40
0.850000000003534
100
AcDbArc
 50
180.0
 51
270.0
  0
ARC
  5
1500
102
{ACAD_REACTORS
330
1509
102
}
330
1F
100
AcDbEntity
  8
役物3
100
AcDbCircle
 10
333.8884030412036
 20
291.4209621193154
 30
0.0
 40
0.5000000000020788
100
AcDbArc
 50
180.0
 51
270.0
  0
ARC
  5
1501
102
{ACAD_REACTORS
330
1509
102
}
330
1F
100
AcDbEntity
  8
役物3
100
AcDbCircle
 10
396.315632272204
 20
291.4209621193008
 30
0.0
 40
0.850000000003534
100
AcDbArc
 50
234.3497649355632
 51
270.0
  0
ARC
  5
1502
102
{ACAD_REACTORS
330
1509
102
}
330
1F
100
AcDbEntity
  8
役物3
100
AcDbCircle
 10
396.315632272204
 20
291.4209621193008
 30
0.0
 40
0.5000000000020788
100
AcDbArc
 50
234.3497649355632
 51
270.0
  0
ARC
  5
1503
102
{ACAD_REACTORS
330
1509
102
}
330
1F
100
AcDbEntity
  8
役物3
100
AcDbCircle
 10
432.1856387002773
 20
291.420962119319
 30
0.0
 40
0.850000000003534
100
AcDbArc
 50
270.0
 51
43.52566483289255
  0
ARC
  5
1504
102
{ACAD_REACTORS
330
1509
102
}
330
1F
100
AcDbEntity
  8
役物3
100
AcDbCircle
 10
432.1856387002773
 20
291.420962119319
 30
0.0
 40
0.5000000000020788
100
AcDbArc
 50
270.0
 51
43.5256648328575
  0
ARC
  5
1505
102
{ACAD_REACTORS
330
1509
102
}
330
1F
100
AcDbEntity
  8
役物3
100
AcDbCircle
 10
388.5407557987288
 20
295.0709621193102
 30
0.0
 40
0.850000000003534
100
AcDbArc
 50
55.8097746632445
 51
124.1902253367555
  0
ARC
  5
1506
102
{ACAD_REACTORS
330
1509
102
}
330
1F
100
AcDbEntity
  8
役物3
100
AcDbCircle
 10
388.5407557987288
 20
295.0709621193102
 30
0.0
 40
0.5000000000020788
100
AcDbArc
 50
55.80977466326122
 51
124.1902253367387
  0
LINE
  5
1507
102
{ACAD_REACTORS
330
1509
102
}
330
1F
100
AcDbEntity
  8
役物3
100
AcDbLine
 10
389.0184067279573
 20
295.7740621049529
 30
0.0
 11
396.0242144489479
 21
291.0146670882156
 31
0.0
  0
LINE
  5
1508
102
{ACAD_REACTORS
330
1509
102
}
330
1F
100
AcDbEntity
  8
役物3
100
AcDbLine
 10
388.8217269335691
 20
295.4845503461574
 30
0.0
 11
395.8275346545596
 21
290.7251553294202
 31
0.0
  0
VIEWPORT
  5
564
102
{ACAD_XDICTIONARY
360
565
102
}
330
D2
100
AcDbEntity
 67
     1
  8
0
100
AcDbViewport
 10
209.9242941465945
 20
148.4993261540845
 30
0.0
 40
776.8649315960914
 41
314.2260000000001
 68
     1
 69
     1
 12
209.9242941465945
 22
148.4993261540845
 13
0.0
 23
0.0
 14
10.0
 24
10.0
 15
10.0
 25
10.0
 16
0.0
 26
0.0
 36
1.0
 17
0.0
 27
0.0
 37
0.0
 42
50.0
 43
0.0
 44
0.0
 45
314.2260000000001
 50
0.0
 51
0.0
 72
  1000
 90
   819232
  1

281
     0
 71
     1
 74
     0
110
0.0
120
0.0
130
0.0
111
1.0
121
0.0
131
0.0
112
0.0
122
1.0
132
0.0
 79
     0
146
0.0
170
     0
 61
     5
348
F5
292
     1
282
     1
141
0.0
142
0.0
 63
   250
421
  3355443
  0
VIEWPORT
  5
56F
102
{ACAD_XDICTIONARY
360
570
102
}
330
D2
100
AcDbEntity
 67
     1
  8
0
100
AcDbViewport
 10
209.9999998805998
 20
148.5000005031572
 30
0.0
 40
420.0
 41
297.0
 68
     2
 69
     2
 12
420.0
 22
297.0
 13
0.0
 23
0.0
 14
2.5
 24
2.5
 15
10.0
 25
10.0
 16
0.0
 26
0.0
 36
1.0
 17
0.0
 27
0.0
 37
0.0
 42
50.0
 43
0.0
 44
0.0
 45
599.3674698795181
 50
0.0
 51
0.0
 72
   100
 90
   835680
  1

281
     0
 71
     1
 74
     0
110
0.0
120
0.0
130
0.0
111
1.0
121
0.0
131
0.0
112
0.0
122
1.0
132
0.0
 79
     0
146
0.0
170
     0
 61
     5
348
F5
292
     1
282
     1
141
0.0
142
0.0
 63
   250
421
  3355443
  0
ENDSEC
  0
SECTION
  2
OBJECTS
  0
DICTIONARY
  5
C
330
0
100
AcDbDictionary
281
     1
  3
ACAD_CIP_PREVIOUS_PRODUCT_INFO
350
216
  3
ACAD_COLOR
350
6B
  3
ACAD_DETAILVIEWSTYLE
350
21B
  3
ACAD_GROUP
350
D
  3
ACAD_LAYOUT
350
1A
  3
ACAD_MATERIAL
350
6A
  3
ACAD_MLEADERSTYLE
350
12D
  3
ACAD_MLINESTYLE
350
17
  3
ACAD_PLOTSETTINGS
350
19
  3
ACAD_PLOTSTYLENAME
350
E
  3
ACAD_RENDER_ACTIVE_RAPIDRT_SETTINGS
350
17D2
  3
ACAD_RENDER_ACTIVE_SETTINGS
350
17E7
  3
ACAD_RENDER_RAPIDRT_SETTINGS
350
17CB
  3
ACAD_SCALELIST
350
10C
  3
ACAD_SECTIONVIEWSTYLE
350
219
  3
ACAD_TABLESTYLE
350
7E
  3
ACAD_VISUALSTYLE
350
EF
  3
ACDB_RECOMPOSE_DATA
350
189F
  3
AcDbVariableDictionary
350
5E
  3
AcDsDecomposeData
350
18A5
  0
DICTIONARY
  5
5E7
330
8
100
AcDbDictionary
280
     1
281
     1
  0
DICTIONARY
  5
1FF
330
2
100
AcDbDictionary
280
     1
281
     1
  3
ACAD_LAYERSTATES
360
200
  0
DICTIONARY
  5
13C
330
10
100
AcDbDictionary
280
     1
281
     1
  0
DICTIONARY
  5
245
330
244
100
AcDbDictionary
280
     1
281
     1
  0
DICTIONARY
  5
53A
330
539
100
AcDbDictionary
280
     1
281
     1
  0
DICTIONARY
  5
640
330
63F
100
AcDbDictionary
280
     1
281
     1
  0
DICTIONARY
  5
642
330
641
100
AcDbDictionary
280
     1
281
     1
  0
DICTIONARY
  5
648
330
647
100
AcDbDictionary
280
     1
281
     1
  0
DICTIONARY
  5
E06
330
E05
100
AcDbDictionary
280
     1
281
     1
  0
DICTIONARY
  5
148D
330
148C
100
AcDbDictionary
280
     1
281
     1
  0
DICTIONARY
  5
148F
330
148E
100
AcDbDictionary
280
     1
281
     1
  0
DICTIONARY
  5
1491
330
1490
100
AcDbDictionary
280
     1
281
     1
  0
DICTIONARY
  5
1CE
330
1F
100
AcDbDictionary
280
     1
281
     1
  0
DICTIONARY
  5
565
330
564
100
AcDbDictionary
280
     1
281
     1
  3
ASDK_XREC_ANNOTATION_SCALE_INFO
360
566
  0
DICTIONARY
  5
570
330
56F
100
AcDbDictionary
280
     1
281
     1
  3
ASDK_XREC_ANNOTATION_SCALE_INFO
360
571
  0
XRECORD
  5
216
102
{ACAD_REACTORS
330
C
102
}
330
C
100
AcDbXrecord
280
     1
300
ACD
300
2023
300

  0
DICTIONARY
  5
6B
102
{ACAD_REACTORS
330
C
102
}
330
C
100
AcDbDictionary
281
     1
  0
DICTIONARY
  5
21B
102
{ACAD_REACTORS
330
C
102
}
330
C
100
AcDbDictionary
281
     1
  3
Metric50
350
21C
  0
DICTIONARY
  5
D
102
{ACAD_REACTORS
330
C
102
}
330
C
100
AcDbDictionary
281
     1
  3
*A1
350
1509
  0
DICTIONARY
  5
1A
102
{ACAD_REACTORS
330
C
102
}
330
C
100
AcDbDictionary
281
     1
  3
Model
350
22
  3
wrp007-07-02
350
D3
  0
DICTIONARY
  5
6A
102
{ACAD_REACTORS
330
C
102
}
330
C
100
AcDbDictionary
281
     1
  3
ByBlock
350
ED
  3
ByLayer
350
EC
  3
Global
350
EE
  0
DICTIONARY
  5
12D
102
{ACAD_REACTORS
330
C
102
}
330
C
100
AcDbDictionary
281
     1
  3
Standard
350
12E
  0
DICTIONARY
  5
17
102
{ACAD_REACTORS
330
C
102
}
330
C
100
AcDbDictionary
281
     1
  3
Standard
350
18
  0
DICTIONARY
  5
19
102
{ACAD_REACTORS
330
C
102
}
330
C
100
AcDbDictionary
281
     1
  0
ACDBDICTIONARYWDFLT
  5
E
102
{ACAD_REACTORS
330
C
102
}
330
C
100
AcDbDictionary
281
     1
  3
Normal
350
F
  3
スタイル 1
350
651
100
AcDbDictionaryWithDefault
340
F
  0
RAPIDRTRENDERSETTINGS
  5
17D2
102
{ACAD_REACTORS
330
C
102
}
330
C
100
AcDbRenderSettings
 90
        2
  1
中
290
     1
290
     0
290
     1
290
     1
  1

  1
5 レンダリング レベルを適用
 90
        0
100
AcDbRapidRTRenderSettings
 90
        3
 70
     0
 90
        5
 90
        1
 70
     1
 70
     2
 40
3.0
 40
3.0
290
     1
  0
MENTALRAYRENDERSETTINGS
  5
17E7
102
{ACAD_XDICTIONARY
360
17E8
102
}
102
{ACAD_REACTORS
330
C
102
}
330
C
100
AcDbRenderSettings
 90
        2
  1
中間
290
     1
290
     1
290
     1
290
     1
  1

  1

 90
        0
100
AcDbMentalRayRenderSettings
 90
        2
 90
        0
 90
        1
 70
     2
 40
3.0
 40
3.0
 40
0.0500000007450581
 40
0.0500000007450581
 40
0.0500000007450581
 40
0.0500000007450581
 70
     0
290
     0
290
     1
 90
        5
 90
        5
 90
        5
290
     0
 90
      500
290
     0
 40
1.0
 90
    10000
 90
        5
 90
        5
 90
        5
290
     0
 90
      200
290
     0
290
     0
290
     0
 40
1.0
 40
1.0
 40
1500.0
 70
     0
 70
     0
 40
10.0
 70
     0
 70
     0
290
     0
  1

 90
       32
 70
     0
 90
     1048
290
     0
 40
1.0
  0
DICTIONARY
  5
17CB
102
{ACAD_REACTORS
330
C
102
}
330
C
100
AcDbDictionary
281
     1
  3
オーバーナイト品質
350
17D1
  3
コーヒー ブレイク品質
350
17CF
  3
ランチ タイム品質
350
17D0
  3
中
350
17CD
  3
低
350
17CC
  3
高
350
17CE
  0
DICTIONARY
  5
10C
102
{ACAD_REACTORS
330
C
102
}
330
C
100
AcDbDictionary
281
     1
  3
A0
350
10D
  3
A1
350
1BE
  3
A2
350
1BF
  3
A3
350
1C0
  3
A4
350
1C1
  3
A5
350
1C2
  3
A6
350
1C3
  3
A7
350
1C4
  3
A8
350
1C5
  3
A9
350
1C6
  3
B0
350
1C7
  3
B1
350
1C8
  3
B2
350
1C9
  3
B3
350
1CA
  3
B4
350
1CB
  3
B5
350
1CC
  3
B6
350
1CD
  0
DICTIONARY
  5
219
102
{ACAD_REACTORS
330
C
102
}
330
C
100
AcDbDictionary
281
     1
  3
Metric50
350
21A
  0
DICTIONARY
  5
7E
102
{ACAD_REACTORS
330
C
102
}
330
C
100
AcDbDictionary
281
     1
  3
Standard
350
7F
  0
DICTIONARY
  5
EF
102
{ACAD_REACTORS
330
C
102
}
330
C
100
AcDbDictionary
281
     1
  3
2dWireframe
350
F5
  3
Basic
350
F4
  3
Brighten
350
FB
  3
ColorChange
350
FF
  3
Conceptual
350
F8
  3
Dim
350
FA
  3
EdgeColorOff
350
1E6
  3
Facepattern
350
FE
  3
Flat
350
F0
  3
FlatWithEdges
350
F1
  3
Gouraud
350
F2
  3
GouraudWithEdges
350
F3
  3
Hidden
350
F7
  3
JitterOff
350
1E4
  3
Linepattern
350
FD
  3
OverhangOff
350
1E5
  3
Realistic
350
F9
  3
Shaded
350
1F3
  3
Shaded with edges
350
1F2
  3
Shades of Gray
350
1EF
  3
Sketchy
350
1F0
  3
Thicken
350
FC
  3
Wireframe
350
F6
  3
X-Ray
350
1F1
  0
XRECORD
  5
189F
102
{ACAD_REACTORS
330
C
102
}
330
C
100
AcDbXrecord
280
     1
 90
        1
330
7F
  0
DICTIONARY
  5
5E
102
{ACAD_REACTORS
330
C
102
}
330
C
100
AcDbDictionary
281
     1
  3
CANNOSCALE
350
146
  3
CMLEADERSTYLE
350
145
  3
CTABLESTYLE
350
84
  3
CVIEWDETAILSTYLE
350
227
  3
CVIEWSECTIONSTYLE
350
228
  3
DIMASSOC
350
5F
  3
HIDETEXT
350
63
  3
LAYEREVAL
350
1AE
  3
LAYERNOTIFY
350
1AF
  3
LIGHTINGUNITS
350
625
  3
MSLTSCALE
350
624
  0
DICTIONARY
  5
18A5
102
{ACAD_REACTORS
330
C
102
}
330
C
100
AcDbDictionary
281
     1
  3
AcDsRecords
350
18A7
  3
AcDsSchemas
350
18A6
1001
ACAD
1070
     2
  0
DICTIONARY
  5
200
102
{ACAD_REACTORS
330
1FF
102
}
330
1FF
100
AcDbDictionary
281
     1
  0
XRECORD
  5
566
102
{ACAD_REACTORS
330
565
102
}
330
565
100
AcDbXrecord
280
     1
 90
        1
340
10D
  0
XRECORD
  5
571
102
{ACAD_REACTORS
330
570
102
}
330
570
100
AcDbXrecord
280
     1
 90
        1
340
10D
  0
ACDBDETAILVIEWSTYLE
  5
21C
102
{ACAD_XDICTIONARY
360
18AA
102
}
102
{ACAD_REACTORS
330
21B
102
}
330
21B
100
AcDbModelDocViewStyle
 70
     0
  3
Metric50
290
     0
100
AcDbDetailViewStyle
 70
     0
 71
     0
 90
        3
 71
     1
340
11
 62
   256
 40
5.0
340
0
 62
   256
 40
5.0
300

 40
0.0
280
     1
 71
     2
340
16
 90
       25
 62
   256
 71
     3
340
11
 62
   256
 40
5.0
 90
        0
 40
15.0
 90
        1
300
%<\AcVar ViewDetailId>% (%<\AcVar ViewScale \f "%sn">%)
 71
     4
340
16
 90
       25
 62
   256
340
16
 90
       25
 62
   256
280
     0
  0
GROUP
  5
1509
102
{ACAD_REACTORS
330
D
102
}
330
D
100
AcDbGroup
300

 70
     1
 71
     1
340
1508
340
1507
340
1506
340
1505
340
1504
340
1503
340
1502
340
1501
340
1500
340
14FF
340
14FE
340
14FD
340
14FC
340
14FB
340
14FA
340
14F9
340
14F8
340
14F7
340
14F6
340
14F5
340
14F4
340
14F3
340
14F2
340
14F1
340
14F0
340
14EF
340
14EE
340
14ED
340
14EC
340
14EB
340
14EA
340
14E9
340
14E8
340
14E7
340
14E6
340
14E5
340
14E4
340
14E3
340
14E2
340
14E1
340
14E0
340
14DF
340
14DE
340
14DD
340
14DC
340
14DB
340
14DA
340
14D9
340
14D8
340
14D7
340
14D6
340
14D5
340
14D4
340
14D3
340
14D2
340
14D1
  0
LAYOUT
  5
22
102
{ACAD_XDICTIONARY
360
205
102
}
102
{ACAD_REACTORS
330
1A
102
}
330
1A
100
AcDbPlotSettings
  1

  2
Adobe PDF
  4
A3
  6

 40
3.174999952316284
 41
3.174999952316284
 42
3.17498779296875
 43
3.17498779296875
 44
297.0318298339844
 45
420.1583251953125
 46
-3.168142676364027
 47
-3.108648657813716
 48
29.99999038752867
 49
22.00000440998611
140
809.9999903875286
141
572.0000044099861
142
1.0
143
2.0
 70
 11940
 72
     1
 73
     1
 74
     1
  7
monochrome.ctb
 75
     0
147
0.4893335039727877
 76
     0
 77
     2
 78
   300
148
0.0256330985855584
149
0.0181267671141541
100
AcDbLayout
  1
Model
 70
     1
 71
     0
 10
0.0
 20
0.0
 11
12.0
 21
9.0
 12
0.0
 22
0.0
 32
0.0
 14
0.0
 24
0.0
 34
0.0
 15
0.0
 25
0.0
 35
0.0
146
0.0
 13
0.0
 23
0.0
 33
0.0
 16
1.0
 26
0.0
 36
0.0
 17
0.0
 27
1.0
 37
0.0
 76
     0
330
1F
331
EA
1001
ACAD_PSEXT
1000
Adobe PDF
1000
Adobe PDF Converter
1000
Documents\*.pdf
1000

1070
     0
  0
LAYOUT
  5
D3
102
{ACAD_XDICTIONARY
360
5EB
102
}
102
{ACAD_REACTORS
330
1A
102
}
330
1A
100
AcDbPlotSettings
  1

  2
Adobe PDF.pc3
  4
A3
  6

 40
0.1481666713953018
 41
0.010498046875
 42
0.0
 43
0.0
 44
420.0
 45
297.0
 46
-0.096217698988653
 47
-0.0143655251039547
 48
0.0
 49
0.0
140
0.0
141
0.0
142
1.0
143
1.0
 70
   550
 72
     1
 73
     0
 74
     1
  7
monochrome.ctb
 75
    16
147
0.9999999999999998
 76
     1
 77
     2
 78
   300
148
0.0237568809989171
149
0.0045413241444976
100
AcDbLayout
  1
wrp007-07-02
 70
     1
 71
     1
 10
-0.0757058534055659
 20
-0.0006738459155429
 11
419.9242941465945
 21
296.9993261540846
 12
0.0
 22
0.0
 32
0.0
 14
-0.0237568809989171
 24
-0.0045413241444976
 34
-0.0015258207003583
 15
420.0205118455832
 25
297.0136916791885
 35
0.0000000349246037
146
0.0
 13
0.0
 23
0.0
 33
0.0
 16
1.0
 26
0.0
 36
0.0
 17
0.0
 27
1.0
 37
0.0
 76
     0
330
D2
331
564
1001
ACAD_PSEXT
1000
Adobe PDF.pc3
1000
Adobe PDF Converter
1000
Documents\*.pdf
1000

1070
     0
  0
MATERIAL
  5
ED
102
{ACAD_XDICTIONARY
360
1F9
102
}
102
{ACAD_REACTORS
330
6A
102
}
330
6A
100
AcDbMaterial
  1
ByBlock
 94
       63
  0
MATERIAL
  5
EC
102
{ACAD_XDICTIONARY
360
1F7
102
}
102
{ACAD_REACTORS
330
6A
102
}
330
6A
100
AcDbMaterial
  1
ByLayer
 94
       63
  0
MATERIAL
  5
EE
102
{ACAD_XDICTIONARY
360
173
102
}
102
{ACAD_REACTORS
330
6A
102
}
330
6A
100
AcDbMaterial
  1
Global
 43
0.0007999999797903
 43
0.0
 43
0.0
 43
0.0
 43
0.0
 43
0.0007999999797903
 43
0.0
 43
0.0
 43
0.0
 43
0.0
 43
1.0
 43
0.0
 43
0.0
 43
0.0
 43
0.0
 43
1.0
 49
0.0007999999797903
 49
0.0
 49
0.0
 49
0.0
 49
0.0
 49
0.0007999999797903
 49
0.0
 49
0.0
 49
0.0
 49
0.0
 49
1.0
 49
0.0
 49
0.0
 49
0.0
 49
0.0
 49
1.0
142
0.0007999999797903
142
0.0
142
0.0
142
0.0
142
0.0
142
0.0007999999797903
142
0.0
142
0.0
142
0.0
142
0.0
142
1.0
142
0.0
142
0.0
142
0.0
142
0.0
142
1.0
144
0.0007999999797903
144
0.0
144
0.0
144
0.0
144
0.0
144
0.0007999999797903
144
0.0
144
0.0
144
0.0
144
0.0
144
1.0
144
0.0
144
0.0
144
0.0
144
0.0
144
1.0
 94
       63
1001
ACAD
1070
    -1
1070
     3
1070
     0
1000

1071
        0
1070
     0
  0
MLEADERSTYLE
  5
12E
102
{ACAD_REACTORS
330
12D
102
}
330
12D
100
AcDbMLeaderStyle
179
     2
170
     2
171
     1
172
     0
 90
        2
 40
0.0
 41
0.0
173
     1
 91
-1056964608
340
14
 92
       -2
290
     1
 42
2.0
291
     1
 43
8.0
  3
Standard
 44
4.0
300

342
11
174
     1
178
     1
175
     1
176
     0
 93
-1056964608
 45
4.0
292
     0
297
     0
 46
4.0
 94
-1056964608
 47
1.0
 49
1.0
140
1.0
293
     1
141
0.0
294
     1
177
     0
142
1.0
295
     0
296
     0
143
3.75
271
     0
272
     9
273
     9
298
     0
  0
MLINESTYLE
  5
18
102
{ACAD_REACTORS
330
17
102
}
330
17
100
AcDbMlineStyle
  2
STANDARD
 70
     0
  3

 62
   256
 51
90.0
 52
90.0
 71
     2
 49
0.5
 62
   256
  6
BYLAYER
 49
-0.5
 62
   256
  6
BYLAYER
  0
ACDBPLACEHOLDER
  5
F
102
{ACAD_REACTORS
330
E
102
}
330
E
  0
ACDBPLACEHOLDER
  5
651
102
{ACAD_REACTORS
330
E
102
}
330
E
  0
DICTIONARY
  5
17E8
330
17E7
100
AcDbDictionary
280
     1
281
     1
  3
ACAD_XREC_ROUNDTRIP
360
17EA
  3
ADSK_XREC_MENTALRAYSETTINGSINFO
360
17E9
  0
RAPIDRTRENDERSETTINGS
  5
17D1
102
{ACAD_REACTORS
330
17CB
102
}
330
17CB
100
AcDbRenderSettings
 90
        2
  1
オーバーナイト品質
290
     1
290
     0
290
     1
290
     1
  1

  1
12 時間のレンダリング
 90
        5
100
AcDbRapidRTRenderSettings
 90
        3
 70
     1
 90
        1
 90
      720
 70
     2
 70
     2
 40
3.0
 40
3.0
290
     1
  0
RAPIDRTRENDERSETTINGS
  5
17CF
102
{ACAD_REACTORS
330
17CB
102
}
330
17CB
100
AcDbRenderSettings
 90
        2
  1
コーヒー ブレイク品質
290
     1
290
     0
290
     1
290
     1
  1

  1
10 分のレンダリング
 90
        3
100
AcDbRapidRTRenderSettings
 90
        3
 70
     1
 90
        1
 90
       10
 70
     1
 70
     2
 40
3.0
 40
3.0
290
     1
  0
RAPIDRTRENDERSETTINGS
  5
17D0
102
{ACAD_REACTORS
330
17CB
102
}
330
17CB
100
AcDbRenderSettings
 90
        2
  1
ランチ タイム品質
290
     1
290
     0
290
     1
290
     1
  1

  1
60 分のレンダリング
 90
        4
100
AcDbRapidRTRenderSettings
 90
        3
 70
     1
 90
        1
 90
       60
 70
     2
 70
     2
 40
3.0
 40
3.0
290
     1
  0
RAPIDRTRENDERSETTINGS
  5
17CD
102
{ACAD_REACTORS
330
17CB
102
}
330
17CB
100
AcDbRenderSettings
 90
        2
  1
中
290
     1
290
     0
290
     1
290
     1
  1

  1
5 レンダリング レベルを適用
 90
        1
100
AcDbRapidRTRenderSettings
 90
        3
 70
     0
 90
        5
 90
        1
 70
     1
 70
     2
 40
3.0
 40
3.0
290
     1
  0
RAPIDRTRENDERSETTINGS
  5
17CC
102
{ACAD_REACTORS
330
17CB
102
}
330
17CB
100
AcDbRenderSettings
 90
        2
  1
低
290
     1
290
     0
290
     1
290
     1
  1

  1
1 レンダリング レベルを適用
 90
        0
100
AcDbRapidRTRenderSettings
 90
        3
 70
     0
 90
        1
 90
        1
 70
     0
 70
     2
 40
3.0
 40
3.0
290
     1
  0
RAPIDRTRENDERSETTINGS
  5
17CE
102
{ACAD_REACTORS
330
17CB
102
}
330
17CB
100
AcDbRenderSettings
 90
        2
  1
高
290
     1
290
     0
290
     1
290
     1
  1

  1
10 レンダリング レベルを適用
 90
        2
100
AcDbRapidRTRenderSettings
 90
        3
 70
     0
 90
       10
 90
        1
 70
     2
 70
     2
 40
3.0
 40
3.0
290
     1
  0
SCALE
  5
10D
102
{ACAD_REACTORS
330
10C
102
}
330
10C
100
AcDbScale
 70
     0
300
1:1
140
1.0
141
1.0
290
     1
  0
SCALE
  5
1BE
102
{ACAD_REACTORS
330
10C
102
}
330
10C
100
AcDbScale
 70
     0
300
1:2
140
1.0
141
2.0
290
     0
  0
SCALE
  5
1BF
102
{ACAD_REACTORS
330
10C
102
}
330
10C
100
AcDbScale
 70
     0
300
1:4
140
1.0
141
4.0
290
     0
  0
SCALE
  5
1C0
102
{ACAD_REACTORS
330
10C
102
}
330
10C
100
AcDbScale
 70
     0
300
1:5
140
1.0
141
5.0
290
     0
  0
SCALE
  5
1C1
102
{ACAD_REACTORS
330
10C
102
}
330
10C
100
AcDbScale
 70
     0
300
1:8
140
1.0
141
8.0
290
     0
  0
SCALE
  5
1C2
102
{ACAD_REACTORS
330
10C
102
}
330
10C
100
AcDbScale
 70
     0
300
1:10
140
1.0
141
10.0
290
     0
  0
SCALE
  5
1C3
102
{ACAD_REACTORS
330
10C
102
}
330
10C
100
AcDbScale
 70
     0
300
1:16
140
1.0
141
16.0
290
     0
  0
SCALE
  5
1C4
102
{ACAD_REACTORS
330
10C
102
}
330
10C
100
AcDbScale
 70
     0
300
1:20
140
1.0
141
20.0
290
     0
  0
SCALE
  5
1C5
102
{ACAD_REACTORS
330
10C
102
}
330
10C
100
AcDbScale
 70
     0
300
1:30
140
1.0
141
30.0
290
     0
  0
SCALE
  5
1C6
102
{ACAD_REACTORS
330
10C
102
}
330
10C
100
AcDbScale
 70
     0
300
1:40
140
1.0
141
40.0
290
     0
  0
SCALE
  5
1C7
102
{ACAD_REACTORS
330
10C
102
}
330
10C
100
AcDbScale
 70
     0
300
1:50
140
1.0
141
50.0
290
     0
  0
SCALE
  5
1C8
102
{ACAD_REACTORS
330
10C
102
}
330
10C
100
AcDbScale
 70
     0
300
1:100
140
1.0
141
100.0
290
     0
  0
SCALE
  5
1C9
102
{ACAD_REACTORS
330
10C
102
}
330
10C
100
AcDbScale
 70
     0
300
2:1
140
2.0
141
1.0
290
     0
  0
SCALE
  5
1CA
102
{ACAD_REACTORS
330
10C
102
}
330
10C
100
AcDbScale
 70
     0
300
4:1
140
4.0
141
1.0
290
     0
  0
SCALE
  5
1CB
102
{ACAD_REACTORS
330
10C
102
}
330
10C
100
AcDbScale
 70
     0
300
8:1
140
8.0
141
1.0
290
     0
  0
SCALE
  5
1CC
102
{ACAD_REACTORS
330
10C
102
}
330
10C
100
AcDbScale
 70
     0
300
10:1
140
10.0
141
1.0
290
     0
  0
SCALE
  5
1CD
102
{ACAD_REACTORS
330
10C
102
}
330
10C
100
AcDbScale
 70
     0
300
100:1
140
100.0
141
1.0
290
     0
  0
ACDBSECTIONVIEWSTYLE
  5
21A
102
{ACAD_XDICTIONARY
360
18A8
102
}
102
{ACAD_REACTORS
330
219
102
}
330
219
100
AcDbModelDocViewStyle
 70
     0
  3
Metric50
290
     0
100
AcDbSectionViewStyle
 70
     0
 71
     0
 90
      102
 71
     1
340
11
 62
   256
 40
5.0
340
0
340
0
 62
   256
 40
5.0
300
I, O, Q, S, X, Z
 40
10.0
 90
        0
 40
2.5
 90
        0
 71
     2
340
16
 90
       25
 62
   256
340
16
 90
       50
 62
   256
 40
5.0
 40
2.5
 40
5.0
 71
     3
340
11
 62
   256
 40
5.0
 90
        0
 40
15.0
 90
        1
300
%<\AcVar ViewSectionStartId>%-%<\AcVar ViewSectionEndId>% (%<\AcVar ViewScale \f "%sn">%)
 71
     4
 62
   256
 62
   257
300
ANSI31
 40
1.0
 90
        0
290
     0
290
     0
 90
        6
 40
0.0
 40
1.570796326794896
 40
0.2617993877991494
 40
1.308996938995747
 40
-0.2617993877991494
 40
1.832595714594046
  0
TABLESTYLE
  5
7F
102
{ACAD_XDICTIONARY
360
162
102
}
102
{ACAD_REACTORS
330
7E
102
}
330
7E
100
AcDbTableStyle
280
     0
  3
Standard
 70
     0
 71
     0
 40
1.5
 41
1.5
280
     0
281
     0
  7
Standard
140
4.5
170
     2
 62
     0
 63
     7
283
     0
 90
      512
 91
        0
  1

274
    -2
284
     1
 64
     0
275
    -2
285
     1
 65
     0
276
    -2
286
     1
 66
     0
277
    -2
287
     1
 67
     0
278
    -2
288
     1
 68
     0
279
    -2
289
     1
 69
     0
  7
Standard
140
6.0
170
     5
 62
     0
 63
     7
283
     0
 90
      512
 91
        0
  1

274
    -2
284
     1
 64
     0
275
    -2
285
     1
 65
     0
276
    -2
286
     1
 66
     0
277
    -2
287
     1
 67
     0
278
    -2
288
     1
 68
     0
279
    -2
289
     1
 69
     0
  7
Standard
140
4.5
170
     5
 62
     0
 63
     7
283
     0
 90
      512
 91
        0
  1

274
    -2
284
     1
 64
     0
275
    -2
285
     1
 65
     0
276
    -2
286
     1
 66
     0
277
    -2
287
     1
 67
     0
278
    -2
288
     1
 68
     0
279
    -2
289
     1
 69
     0
  0
VISUALSTYLE
  5
F5
102
{ACAD_REACTORS
330
EF
102
}
330
EF
100
AcDbVisualStyle
  2
2dWireframe
 70
     4
177
     3
291
     0
 70
    58
 90
        0
176
     1
 90
        2
176
     1
 90
        1
176
     1
 90
        0
176
     1
 40
0.6
176
     1
 40
30.0
176
     1
 62
     7
420
 16777215
176
     1
 90
        1
176
     1
 90
        4
176
     1
 62
     7
176
     1
 62
   257
176
     1
 90
        1
176
     1
 90
        1
176
     1
 40
1.0
176
     1
 90
        0
176
     1
 62
   257
176
     1
 40
1.0
176
     1
 90
        1
176
     1
 90
        6
176
     1
 90
        2
176
     1
 62
     7
176
     1
 90
        5
176
     1
 90
        0
176
     1
 90
        0
176
     1
290
     0
176
     1
 90
        1
176
     1
 40
0.0
176
     1
 90
        0
176
     1
290
     1
176
     1
290
     1
176
     1
290
     0
176
     1
290
     0
176
     1
290
     0
176
     1
290
     0
176
     1
290
     0
176
     1
290
     0
176
     1
290
     0
176
     1
 90
       50
176
     1
 40
0.0
176
     1
 40
1.0
176
     1
 90
        0
176
     1
 62
    18
420
        0
176
     1
 90
       50
176
     1
 90
        3
176
     1
 62
     5
420
      255
176
     1
290
     0
176
     1
 90
       50
176
     1
 90
       50
176
     1
 90
       50
176
     1
290
     0
176
     1
 90
       50
176
     1
 62
   256
176
     0
 40
1.0
176
     0
 90
        2
176
     1
  1
strokes_ogs.tif
176
     1
290
     0
176
     1
 40
1.0
176
     1
 40
1.0
176
     1
1001
ACAD
1000
AcDbSavedByObjectVersion
1070
     0
  0
VISUALSTYLE
  5
F4
102
{ACAD_REACTORS
330
EF
102
}
330
EF
100
AcDbVisualStyle
  2
Basic
 70
     7
177
     3
291
     1
 70
    58
 90
        1
176
     1
 90
        0
176
     1
 90
        1
176
     1
 90
        0
176
     1
 40
0.6
176
     1
 40
30.0
176
     1
 62
     7
420
 16777215
176
     1
 90
        0
176
     1
 90
        4
176
     1
 62
     7
176
     1
 62
   257
176
     1
 90
        1
176
     1
 90
        1
176
     1
 40
1.0
176
     1
 90
        8
176
     1
 62
     7
176
     1
 40
1.0
176
     1
 90
        1
176
     1
 90
        6
176
     1
 90
        2
176
     1
 62
     7
176
     1
 90
        5
176
     1
 90
        0
176
     1
 90
        0
176
     1
290
     0
176
     1
 90
        1
176
     1
 40
0.0
176
     1
 90
        0
176
     1
290
     0
176
     1
290
     1
176
     1
290
     1
176
     1
290
     0
176
     1
290
     0
176
     1
290
     0
176
     1
290
     0
176
     1
290
     0
176
     1
290
     0
176
     1
 90
       50
176
     1
 40
0.0
176
     1
 40
1.0
176
     1
 90
        0
176
     1
 62
    18
420
        0
176
     1
 90
       50
176
     1
 90
        3
176
     1
 62
     5
420
      255
176
     1
290
     0
176
     1
 90
       50
176
     1
 90
       50
176
     1
 90
       50
176
     1
290
     0
176
     1
 90
       50
176
     1
 62
   256
176
     0
 40
1.0
176
     0
 90
        2
176
     1
  1
strokes_ogs.tif
176
     1
290
     0
176
     1
 40
1.0
176
     1
 40
1.0
176
     1
1001
ACAD
1000
AcDbSavedByObjectVersion
1070
     0
  0
VISUALSTYLE
  5
FB
102
{ACAD_REACTORS
330
EF
102
}
330
EF
100
AcDbVisualStyle
  2
Brighten
 70
    12
177
     3
291
     1
 70
    58
 90
        2
176
     1
 90
        2
176
     1
 90
        1
176
     1
 90
        0
176
     1
 40
0.6
176
     1
 40
30.0
176
     1
 62
     7
420
 16777215
176
     1
 90
        1
176
     1
 90
        4
176
     1
 62
     7
176
     1
 62
   257
176
     1
 90
        1
176
     1
 90
        1
176
     1
 40
1.0
176
     1
 90
        8
176
     1
 62
     7
176
     1
 40
1.0
176
     1
 90
        1
176
     1
 90
        6
176
     1
 90
        2
176
     1
 62
     7
176
     1
 90
        5
176
     1
 90
        0
176
     1
 90
        0
176
     1
290
     0
176
     1
 90
        1
176
     1
 40
50.0
176
     1
 90
        0
176
     1
290
     0
176
     1
290
     1
176
     1
290
     1
176
     1
290
     0
176
     1
290
     0
176
     1
290
     0
176
     1
290
     0
176
     1
290
     0
176
     1
290
     0
176
     1
 90
       50
176
     1
 40
0.0
176
     1
 40
1.0
176
     1
 90
        0
176
     1
 62
    18
420
        0
176
     1
 90
       50
176
     1
 90
        3
176
     1
 62
     5
420
      255
176
     1
290
     0
176
     1
 90
       50
176
     1
 90
       50
176
     1
 90
       50
176
     1
290
     0
176
     1
 90
       50
176
     1
 62
   256
176
     0
 40
1.0
176
     0
 90
        2
176
     1
  1
strokes_ogs.tif
176
     1
290
     0
176
     1
 40
1.0
176
     1
 40
1.0
176
     1
1001
ACAD
1000
AcDbSavedByObjectVersion
1070
     0
  0
VISUALSTYLE
  5
FF
102
{ACAD_REACTORS
330
EF
102
}
330
EF
100
AcDbVisualStyle
  2
ColorChange
 70
    16
177
     3
291
     1
 70
    58
 90
        2
176
     1
 90
        2
176
     1
 90
        3
176
     1
 90
        0
176
     1
 40
0.6
176
     1
 40
30.0
176
     1
 62
     8
420
  8421504
176
     1
 90
        1
176
     1
 90
        4
176
     1
 62
     7
176
     1
 62
   257
176
     1
 90
        1
176
     1
 90
        1
176
     1
 40
1.0
176
     1
 90
        8
176
     1
 62
     8
420
  8421504
176
     1
 40
1.0
176
     1
 90
        1
176
     1
 90
        6
176
     1
 90
        2
176
     1
 62
     7
176
     1
 90
        5
176
     1
 90
        0
176
     1
 90
        0
176
     1
290
     0
176
     1
 90
        1
176
     1
 40
0.0
176
     1
 90
        0
176
     1
290
     0
176
     1
290
     1
176
     1
290
     1
176
     1
290
     0
176
     1
290
     0
176
     1
290
     0
176
     1
290
     0
176
     1
290
     0
176
     1
290
     0
176
     1
 90
       50
176
     1
 40
0.0
176
     1
 40
1.0
176
     1
 90
        0
176
     1
 62
    18
420
        0
176
     1
 90
       50
176
     1
 90
        3
176
     1
 62
     5
420
      255
176
     1
290
     0
176
     1
 90
       50
176
     1
 90
       50
176
     1
 90
       50
176
     1
290
     0
176
     1
 90
       50
176
     1
 62
   256
176
     0
 40
1.0
176
     0
 90
        2
176
     1
  1
strokes_ogs.tif
176
     1
290
     0
176
     1
 40
1.0
176
     1
 40
1.0
176
     1
1001
ACAD
1000
AcDbSavedByObjectVersion
1070
     0
  0
VISUALSTYLE
  5
F8
102
{ACAD_REACTORS
330
EF
102
}
330
EF
100
AcDbVisualStyle
  2
Conceptual
 70
     9
177
     3
291
     0
 70
    58
 90
        3
176
     1
 90
        2
176
     1
 90
        1
176
     1
 90
        0
176
     1
 40
0.6
176
     1
 40
30.0
176
     1
 62
     7
420
 16777215
176
     1
 90
        2
176
     1
 90
        2
176
     1
 62
     7
176
     1
 62
   257
176
     1
 90
        1
176
     1
 90
        1
176
     1
 40
40.0
176
     1
 90
        8
176
     1
 62
     7
176
     1
 40
1.0
176
     1
 90
        1
176
     1
 90
        6
176
     1
 90
        2
176
     1
 62
     7
176
     1
 90
        3
176
     1
 90
        0
176
     1
 90
        0
176
     1
290
     0
176
     1
 90
        1
176
     1
 40
0.0
176
     1
 90
        0
176
     1
290
     0
176
     1
290
     1
176
     1
290
     1
176
     1
290
     0
176
     1
290
     0
176
     1
290
     0
176
     1
290
     0
176
     1
290
     0
176
     1
290
     0
176
     1
 90
       50
176
     1
 40
0.0
176
     1
 40
1.0
176
     1
 90
        0
176
     1
 62
    18
420
        0
176
     1
 90
       50
176
     1
 90
        3
176
     1
 62
     5
420
      255
176
     1
290
     0
176
     1
 90
       50
176
     1
 90
       50
176
     1
 90
       50
176
     1
290
     0
176
     1
 90
       50
176
     1
 62
   256
176
     0
 40
1.0
176
     0
 90
        2
176
     1
  1
strokes_ogs.tif
176
     1
290
     0
176
     1
 40
1.0
176
     1
 40
1.0
176
     1
1001
ACAD
1000
AcDbSavedByObjectVersion
1070
     0
  0
VISUALSTYLE
  5
FA
102
{ACAD_REACTORS
330
EF
102
}
330
EF
100
AcDbVisualStyle
  2
Dim
 70
    11
177
     3
291
     1
 70
    58
 90
        2
176
     1
 90
        2
176
     1
 90
        1
176
     1
 90
        0
176
     1
 40
0.6
176
     1
 40
30.0
176
     1
 62
     7
420
 16777215
176
     1
 90
        1
176
     1
 90
        4
176
     1
 62
     7
176
     1
 62
   257
176
     1
 90
        1
176
     1
 90
        1
176
     1
 40
1.0
176
     1
 90
        8
176
     1
 62
     7
176
     1
 40
1.0
176
     1
 90
        1
176
     1
 90
        6
176
     1
 90
        2
176
     1
 62
     7
176
     1
 90
        5
176
     1
 90
        0
176
     1
 90
        0
176
     1
290
     0
176
     1
 90
        1
176
     1
 40
-50.0
176
     1
 90
        0
176
     1
290
     0
176
     1
290
     1
176
     1
290
     1
176
     1
290
     0
176
     1
290
     0
176
     1
290
     0
176
     1
290
     0
176
     1
290
     0
176
     1
290
     0
176
     1
 90
       50
176
     1
 40
0.0
176
     1
 40
1.0
176
     1
 90
        0
176
     1
 62
    18
420
        0
176
     1
 90
       50
176
     1
 90
        3
176
     1
 62
     5
420
      255
176
     1
290
     0
176
     1
 90
       50
176
     1
 90
       50
176
     1
 90
       50
176
     1
290
     0
176
     1
 90
       50
176
     1
 62
   256
176
     0
 40
1.0
176
     0
 90
        2
176
     1
  1
strokes_ogs.tif
176
     1
290
     0
176
     1
 40
1.0
176
     1
 40
1.0
176
     1
1001
ACAD
1000
AcDbSavedByObjectVersion
1070
     0
  0
VISUALSTYLE
  5
1E6
102
{ACAD_REACTORS
330
EF
102
}
330
EF
100
AcDbVisualStyle
  2
EdgeColorOff
 70
    22
177
     3
291
     1
 70
    58
 90
        2
176
     0
 90
        2
176
     0
 90
        0
176
     0
 90
        0
176
     0
 40
0.6
176
     0
 40
30.0
176
     0
 62
     7
420
 16777215
176
     0
 90
        1
176
     0
 90
        4
176
     0
 62
     7
176
     0
 62
   257
176
     0
 90
        1
176
     0
 90
        1
176
     0
 40
1.0
176
     0
 90
        8
176
     2
 62
     7
176
     0
 40
1.0
176
     0
 90
        1
176
     0
 90
        6
176
     0
 90
        2
176
     0
 62
     7
176
     0
 90
        5
176
     0
 90
        0
176
     0
 90
        0
176
     0
290
     0
176
     0
 90
        1
176
     0
 40
0.0
176
     0
 90
        0
176
     0
290
     0
176
     1
290
     1
176
     1
290
     1
176
     1
290
     0
176
     1
290
     0
176
     1
290
     0
176
     1
290
     0
176
     1
290
     0
176
     1
290
     0
176
     1
 90
       50
176
     1
 40
0.0
176
     1
 40
1.0
176
     1
 90
        0
176
     1
 62
    18
420
        0
176
     1
 90
       50
176
     1
 90
        3
176
     1
 62
     5
420
      255
176
     1
290
     0
176
     1
 90
       50
176
     1
 90
       50
176
     1
 90
       50
176
     1
290
     0
176
     1
 90
       50
176
     1
 62
   256
176
     0
 40
1.0
176
     0
 90
        2
176
     1
  1
strokes_ogs.tif
176
     1
290
     0
176
     1
 40
1.0
176
     1
 40
1.0
176
     1
1001
ACAD
1000
AcDbSavedByObjectVersion
1070
     0
  0
VISUALSTYLE
  5
FE
102
{ACAD_REACTORS
330
EF
102
}
330
EF
100
AcDbVisualStyle
  2
Facepattern
 70
    15
177
     3
291
     1
 70
    58
 90
        2
176
     1
 90
        2
176
     1
 90
        1
176
     1
 90
        0
176
     1
 40
0.6
176
     1
 40
30.0
176
     1
 62
     7
420
 16777215
176
     1
 90
        1
176
     1
 90
        4
176
     1
 62
     7
176
     1
 62
   257
176
     1
 90
        1
176
     1
 90
        1
176
     1
 40
1.0
176
     1
 90
        8
176
     1
 62
     7
176
     1
 40
1.0
176
     1
 90
        1
176
     1
 90
        6
176
     1
 90
        2
176
     1
 62
     7
176
     1
 90
        5
176
     1
 90
        0
176
     1
 90
        0
176
     1
290
     0
176
     1
 90
        1
176
     1
 40
0.0
176
     1
 90
        0
176
     1
290
     0
176
     1
290
     1
176
     1
290
     1
176
     1
290
     0
176
     1
290
     0
176
     1
290
     0
176
     1
290
     0
176
     1
290
     0
176
     1
290
     0
176
     1
 90
       50
176
     1
 40
0.0
176
     1
 40
1.0
176
     1
 90
        0
176
     1
 62
    18
420
        0
176
     1
 90
       50
176
     1
 90
        3
176
     1
 62
     5
420
      255
176
     1
290
     0
176
     1
 90
       50
176
     1
 90
       50
176
     1
 90
       50
176
     1
290
     0
176
     1
 90
       50
176
     1
 62
   256
176
     0
 40
1.0
176
     0
 90
        2
176
     1
  1
strokes_ogs.tif
176
     1
290
     0
176
     1
 40
1.0
176
     1
 40
1.0
176
     1
1001
ACAD
1000
AcDbSavedByObjectVersion
1070
     0
  0
VISUALSTYLE
  5
F0
102
{ACAD_REACTORS
330
EF
102
}
330
EF
100
AcDbVisualStyle
  2
Flat
 70
     0
177
     3
291
     1
 70
    58
 90
        2
176
     1
 90
        1
176
     1
 90
        1
176
     1
 90
        2
176
     1
 40
0.6
176
     1
 40
30.0
176
     1
 62
     7
420
 16777215
176
     1
 90
        0
176
     1
 90
        0
176
     1
 62
     7
176
     1
 62
   257
176
     1
 90
        1
176
     1
 90
        1
176
     1
 40
1.0
176
     1
 90
        8
176
     1
 62
     7
176
     1
 40
1.0
176
     1
 90
        1
176
     1
 90
        6
176
     1
 90
        2
176
     1
 62
     7
176
     1
 90
        5
176
     1
 90
        0
176
     1
 90
        0
176
     1
290
     0
176
     1
 90
       13
176
     1
 40
0.0
176
     1
 90
        0
176
     1
290
     0
176
     1
290
     1
176
     1
290
     1
176
     1
290
     0
176
     1
290
     0
176
     1
290
     0
176
     1
290
     0
176
     1
290
     0
176
     1
290
     0
176
     1
 90
       50
176
     1
 40
0.0
176
     1
 40
1.0
176
     1
 90
        0
176
     1
 62
    18
420
        0
176
     1
 90
       50
176
     1
 90
        3
176
     1
 62
     5
420
      255
176
     1
290
     0
176
     1
 90
       50
176
     1
 90
       50
176
     1
 90
       50
176
     1
290
     0
176
     1
 90
       50
176
     1
 62
   256
176
     0
 40
1.0
176
     0
 90
        2
176
     1
  1
strokes_ogs.tif
176
     1
290
     0
176
     1
 40
1.0
176
     1
 40
1.0
176
     1
1001
ACAD
1000
AcDbSavedByObjectVersion
1070
     0
  0
VISUALSTYLE
  5
F1
102
{ACAD_REACTORS
330
EF
102
}
330
EF
100
AcDbVisualStyle
  2
FlatWithEdges
 70
     1
177
     3
291
     1
 70
    58
 90
        2
176
     1
 90
        1
176
     1
 90
        1
176
     1
 90
        2
176
     1
 40
0.6
176
     1
 40
30.0
176
     1
 62
     7
420
 16777215
176
     1
 90
        1
176
     1
 90
        0
176
     1
 62
     7
176
     1
 62
   257
176
     1
 90
        1
176
     1
 90
        1
176
     1
 40
1.0
176
     1
 90
        0
176
     1
 62
   257
176
     1
 40
1.0
176
     1
 90
        1
176
     1
 90
        6
176
     1
 90
        2
176
     1
 62
     7
176
     1
 90
        5
176
     1
 90
        0
176
     1
 90
        0
176
     1
290
     0
176
     1
 90
       13
176
     1
 40
0.0
176
     1
 90
        0
176
     1
290
     0
176
     1
290
     1
176
     1
290
     1
176
     1
290
     0
176
     1
290
     0
176
     1
290
     0
176
     1
290
     0
176
     1
290
     0
176
     1
290
     0
176
     1
 90
       50
176
     1
 40
0.0
176
     1
 40
1.0
176
     1
 90
        0
176
     1
 62
    18
420
        0
176
     1
 90
       50
176
     1
 90
        3
176
     1
 62
     5
420
      255
176
     1
290
     0
176
     1
 90
       50
176
     1
 90
       50
176
     1
 90
       50
176
     1
290
     0
176
     1
 90
       50
176
     1
 62
   256
176
     0
 40
1.0
176
     0
 90
        2
176
     1
  1
strokes_ogs.tif
176
     1
290
     0
176
     1
 40
1.0
176
     1
 40
1.0
176
     1
1001
ACAD
1000
AcDbSavedByObjectVersion
1070
     0
  0
VISUALSTYLE
  5
F2
102
{ACAD_REACTORS
330
EF
102
}
330
EF
100
AcDbVisualStyle
  2
Gouraud
 70
     2
177
     3
291
     1
 70
    58
 90
        2
176
     1
 90
        2
176
     1
 90
        1
176
     1
 90
        2
176
     1
 40
0.6
176
     1
 40
30.0
176
     1
 62
     7
420
 16777215
176
     1
 90
        0
176
     1
 90
        0
176
     1
 62
     7
176
     1
 62
   257
176
     1
 90
        1
176
     1
 90
        1
176
     1
 40
1.0
176
     1
 90
        0
176
     1
 62
     7
176
     1
 40
1.0
176
     1
 90
        1
176
     1
 90
        6
176
     1
 90
        2
176
     1
 62
     7
176
     1
 90
        5
176
     1
 90
        0
176
     1
 90
        0
176
     1
290
     0
176
     1
 90
       13
176
     1
 40
0.0
176
     1
 90
        0
176
     1
290
     0
176
     1
290
     1
176
     1
290
     1
176
     1
290
     0
176
     1
290
     0
176
     1
290
     0
176
     1
290
     0
176
     1
290
     0
176
     1
290
     0
176
     1
 90
       50
176
     1
 40
0.0
176
     1
 40
1.0
176
     1
 90
        0
176
     1
 62
    18
420
        0
176
     1
 90
       50
176
     1
 90
        3
176
     1
 62
     5
420
      255
176
     1
290
     0
176
     1
 90
       50
176
     1
 90
       50
176
     1
 90
       50
176
     1
290
     0
176
     1
 90
       50
176
     1
 62
   256
176
     0
 40
1.0
176
     0
 90
        2
176
     1
  1
strokes_ogs.tif
176
     1
290
     0
176
     1
 40
1.0
176
     1
 40
1.0
176
     1
1001
ACAD
1000
AcDbSavedByObjectVersion
1070
     0
  0
VISUALSTYLE
  5
F3
102
{ACAD_REACTORS
330
EF
102
}
330
EF
100
AcDbVisualStyle
  2
GouraudWithEdges
 70
     3
177
     3
291
     1
 70
    58
 90
        2
176
     1
 90
        2
176
     1
 90
        1
176
     1
 90
        2
176
     1
 40
0.6
176
     1
 40
30.0
176
     1
 62
     7
420
 16777215
176
     1
 90
        1
176
     1
 90
        0
176
     1
 62
     7
176
     1
 62
   257
176
     1
 90
        1
176
     1
 90
        1
176
     1
 40
1.0
176
     1
 90
        0
176
     1
 62
   257
176
     1
 40
1.0
176
     1
 90
        1
176
     1
 90
        6
176
     1
 90
        2
176
     1
 62
     7
176
     1
 90
        5
176
     1
 90
        0
176
     1
 90
        0
176
     1
290
     0
176
     1
 90
       13
176
     1
 40
0.0
176
     1
 90
        0
176
     1
290
     0
176
     1
290
     1
176
     1
290
     1
176
     1
290
     0
176
     1
290
     0
176
     1
290
     0
176
     1
290
     0
176
     1
290
     0
176
     1
290
     0
176
     1
 90
       50
176
     1
 40
0.0
176
     1
 40
1.0
176
     1
 90
        0
176
     1
 62
    18
420
        0
176
     1
 90
       50
176
     1
 90
        3
176
     1
 62
     5
420
      255
176
     1
290
     0
176
     1
 90
       50
176
     1
 90
       50
176
     1
 90
       50
176
     1
290
     0
176
     1
 90
       50
176
     1
 62
   256
176
     0
 40
1.0
176
     0
 90
        2
176
     1
  1
strokes_ogs.tif
176
     1
290
     0
176
     1
 40
1.0
176
     1
 40
1.0
176
     1
1001
ACAD
1000
AcDbSavedByObjectVersion
1070
     0
  0
VISUALSTYLE
  5
F7
102
{ACAD_REACTORS
330
EF
102
}
330
EF
100
AcDbVisualStyle
  2
Hidden
 70
     6
177
     3
291
     0
 70
    58
 90
        1
176
     1
 90
        2
176
     1
 90
        2
176
     1
 90
        0
176
     1
 40
0.6
176
     1
 40
30.0
176
     1
 62
     7
420
 16777215
176
     1
 90
        2
176
     1
 90
        2
176
     1
 62
     7
176
     1
 62
   257
176
     1
 90
        2
176
     1
 90
        1
176
     1
 40
40.0
176
     1
 90
        0
176
     1
 62
   257
176
     1
 40
1.0
176
     1
 90
        1
176
     1
 90
        6
176
     1
 90
        2
176
     1
 62
     7
176
     1
 90
        3
176
     1
 90
        0
176
     1
 90
        0
176
     1
290
     0
176
     1
 90
        1
176
     1
 40
0.0
176
     1
 90
        0
176
     1
290
     0
176
     1
290
     1
176
     1
290
     1
176
     1
290
     0
176
     1
290
     0
176
     1
290
     0
176
     1
290
     0
176
     1
290
     0
176
     1
290
     0
176
     1
 90
       50
176
     1
 40
0.0
176
     1
 40
1.0
176
     1
 90
        0
176
     1
 62
    18
420
        0
176
     1
 90
       50
176
     1
 90
        3
176
     1
 62
     5
420
      255
176
     1
290
     0
176
     1
 90
       50
176
     1
 90
       50
176
     1
 90
       50
176
     1
290
     0
176
     1
 90
       50
176
     1
 62
   256
176
     0
 40
1.0
176
     0
 90
        2
176
     1
  1
strokes_ogs.tif
176
     1
290
     0
176
     1
 40
1.0
176
     1
 40
1.0
176
     1
1001
ACAD
1000
AcDbSavedByObjectVersion
1070
     0
  0
VISUALSTYLE
  5
1E4
102
{ACAD_REACTORS
330
EF
102
}
330
EF
100
AcDbVisualStyle
  2
JitterOff
 70
    20
177
     3
291
     1
 70
    58
 90
        2
176
     0
 90
        2
176
     0
 90
        0
176
     0
 90
        0
176
     0
 40
0.6
176
     0
 40
30.0
176
     0
 62
     7
420
 16777215
176
     0
 90
        1
176
     0
 90
        4
176
     0
 62
     7
176
     0
 62
   257
176
     0
 90
        1
176
     0
 90
        1
176
     0
 40
1.0
176
     0
 90
       10
176
     2
 62
     7
176
     0
 40
1.0
176
     0
 90
        1
176
     0
 90
        6
176
     0
 90
        2
176
     0
 62
     7
176
     0
 90
        5
176
     0
 90
        0
176
     0
 90
        0
176
     0
290
     0
176
     0
 90
        1
176
     0
 40
0.0
176
     0
 90
        0
176
     0
290
     0
176
     1
290
     1
176
     1
290
     1
176
     1
290
     0
176
     1
290
     0
176
     1
290
     0
176
     1
290
     0
176
     1
290
     0
176
     1
290
     0
176
     1
 90
       50
176
     1
 40
0.0
176
     1
 40
1.0
176
     1
 90
        0
176
     1
 62
    18
420
        0
176
     1
 90
       50
176
     1
 90
        3
176
     1
 62
     5
420
      255
176
     1
290
     0
176
     1
 90
       50
176
     1
 90
       50
176
     1
 90
       50
176
     1
290
     0
176
     1
 90
       50
176
     1
 62
   256
176
     0
 40
1.0
176
     0
 90
        2
176
     1
  1
strokes_ogs.tif
176
     1
290
     0
176
     1
 40
1.0
176
     1
 40
1.0
176
     1
1001
ACAD
1000
AcDbSavedByObjectVersion
1070
     0
  0
VISUALSTYLE
  5
FD
102
{ACAD_REACTORS
330
EF
102
}
330
EF
100
AcDbVisualStyle
  2
Linepattern
 70
    14
177
     3
291
     1
 70
    58
 90
        2
176
     1
 90
        2
176
     1
 90
        1
176
     1
 90
        0
176
     1
 40
0.6
176
     1
 40
30.0
176
     1
 62
     7
420
 16777215
176
     1
 90
        1
176
     1
 90
        4
176
     1
 62
     7
176
     1
 62
   257
176
     1
 90
        7
176
     1
 90
        7
176
     1
 40
1.0
176
     1
 90
        8
176
     1
 62
     7
176
     1
 40
1.0
176
     1
 90
        1
176
     1
 90
        6
176
     1
 90
        2
176
     1
 62
     7
176
     1
 90
        5
176
     1
 90
        0
176
     1
 90
        0
176
     1
290
     0
176
     1
 90
        1
176
     1
 40
0.0
176
     1
 90
        0
176
     1
290
     0
176
     1
290
     1
176
     1
290
     1
176
     1
290
     0
176
     1
290
     0
176
     1
290
     0
176
     1
290
     0
176
     1
290
     0
176
     1
290
     0
176
     1
 90
       50
176
     1
 40
0.0
176
     1
 40
1.0
176
     1
 90
        0
176
     1
 62
    18
420
        0
176
     1
 90
       50
176
     1
 90
        3
176
     1
 62
     5
420
      255
176
     1
290
     0
176
     1
 90
       50
176
     1
 90
       50
176
     1
 90
       50
176
     1
290
     0
176
     1
 90
       50
176
     1
 62
   256
176
     0
 40
1.0
176
     0
 90
        2
176
     1
  1
strokes_ogs.tif
176
     1
290
     0
176
     1
 40
1.0
176
     1
 40
1.0
176
     1
1001
ACAD
1000
AcDbSavedByObjectVersion
1070
     0
  0
VISUALSTYLE
  5
1E5
102
{ACAD_REACTORS
330
EF
102
}
330
EF
100
AcDbVisualStyle
  2
OverhangOff
 70
    21
177
     3
291
     1
 70
    58
 90
        2
176
     0
 90
        2
176
     0
 90
        0
176
     0
 90
        0
176
     0
 40
0.6
176
     0
 40
30.0
176
     0
 62
     7
420
 16777215
176
     0
 90
        1
176
     0
 90
        4
176
     0
 62
     7
176
     0
 62
   257
176
     0
 90
        1
176
     0
 90
        1
176
     0
 40
1.0
176
     0
 90
        9
176
     2
 62
     7
176
     0
 40
1.0
176
     0
 90
        1
176
     0
 90
        6
176
     0
 90
        2
176
     0
 62
     7
176
     0
 90
        5
176
     0
 90
        0
176
     0
 90
        0
176
     0
290
     0
176
     0
 90
        1
176
     0
 40
0.0
176
     0
 90
        0
176
     0
290
     0
176
     1
290
     1
176
     1
290
     1
176
     1
290
     0
176
     1
290
     0
176
     1
290
     0
176
     1
290
     0
176
     1
290
     0
176
     1
290
     0
176
     1
 90
       50
176
     1
 40
0.0
176
     1
 40
1.0
176
     1
 90
        0
176
     1
 62
    18
420
        0
176
     1
 90
       50
176
     1
 90
        3
176
     1
 62
     5
420
      255
176
     1
290
     0
176
     1
 90
       50
176
     1
 90
       50
176
     1
 90
       50
176
     1
290
     0
176
     1
 90
       50
176
     1
 62
   256
176
     0
 40
1.0
176
     0
 90
        2
176
     1
  1
strokes_ogs.tif
176
     1
290
     0
176
     1
 40
1.0
176
     1
 40
1.0
176
     1
1001
ACAD
1000
AcDbSavedByObjectVersion
1070
     0
  0
VISUALSTYLE
  5
F9
102
{ACAD_REACTORS
330
EF
102
}
330
EF
100
AcDbVisualStyle
  2
Realistic
 70
     8
177
     3
291
     0
 70
    58
 90
        2
176
     1
 90
        2
176
     1
 90
        0
176
     1
 90
        2
176
     1
 40
0.6
176
     1
 40
30.0
176
     1
 62
     7
420
 16777215
176
     1
 90
        0
176
     1
 90
        0
176
     1
 62
     7
176
     1
 62
   257
176
     1
 90
        1
176
     1
 90
        1
176
     1
 40
1.0
176
     1
 90
        8
176
     1
 62
   257
176
     1
 40
1.0
176
     1
 90
        1
176
     1
 90
        6
176
     1
 90
        2
176
     1
 62
     7
176
     1
 90
        3
176
     1
 90
        0
176
     1
 90
        0
176
     1
290
     0
176
     1
 90
       13
176
     1
 40
0.0
176
     1
 90
        0
176
     1
290
     0
176
     1
290
     1
176
     1
290
     1
176
     1
290
     0
176
     1
290
     0
176
     1
290
     0
176
     1
290
     0
176
     1
290
     0
176
     1
290
     0
176
     1
 90
       50
176
     1
 40
0.0
176
     1
 40
1.0
176
     1
 90
        0
176
     1
 62
    18
420
        0
176
     1
 90
       50
176
     1
 90
        3
176
     1
 62
     5
420
      255
176
     1
290
     0
176
     1
 90
       50
176
     1
 90
       50
176
     1
 90
       50
176
     1
290
     0
176
     1
 90
       50
176
     1
 62
   256
176
     0
 40
1.0
176
     0
 90
        2
176
     1
  1
strokes_ogs.tif
176
     1
290
     0
176
     1
 40
1.0
176
     1
 40
1.0
176
     1
1001
ACAD
1000
AcDbSavedByObjectVersion
1070
     0
  0
VISUALSTYLE
  5
1F3
102
{ACAD_REACTORS
330
EF
102
}
330
EF
100
AcDbVisualStyle
  2
Shaded
 70
    27
177
     3
291
     0
 70
    58
 90
        2
176
     1
 90
        2
176
     1
 90
        1
176
     1
 90
        2
176
     1
 40
0.6
176
     1
 40
30.0
176
     1
 62
     7
420
 16777215
176
     1
 90
        0
176
     1
 90
        4
176
     1
 62
     7
176
     1
 62
   257
176
     1
 90
        1
176
     1
 90
        1
176
     1
 40
1.0
176
     1
 90
        8
176
     1
 62
   257
176
     1
 40
1.0
176
     1
 90
        1
176
     1
 90
        6
176
     1
 90
        2
176
     1
 62
     8
420
  7895160
176
     1
 90
        3
176
     1
 90
        0
176
     1
 90
        0
176
     1
290
     0
176
     1
 90
        5
176
     1
 40
0.0
176
     1
 90
        0
176
     1
290
     0
176
     1
290
     1
176
     1
290
     1
176
     1
290
     0
176
     1
290
     0
176
     1
290
     0
176
     1
290
     0
176
     1
290
     0
176
     1
290
     0
176
     1
 90
       50
176
     1
 40
0.0
176
     1
 40
1.0
176
     1
 90
        0
176
     1
 62
    18
420
        0
176
     1
 90
       50
176
     1
 90
        3
176
     1
 62
     5
420
      255
176
     1
290
     0
176
     1
 90
       50
176
     1
 90
       50
176
     1
 90
       50
176
     1
290
     0
176
     1
 90
       50
176
     1
 62
   256
176
     0
 40
1.0
176
     0
 90
        2
176
     1
  1
strokes_ogs.tif
176
     1
290
     0
176
     1
 40
1.0
176
     1
 40
1.0
176
     1
1001
ACAD
1000
AcDbSavedByObjectVersion
1070
     0
  0
VISUALSTYLE
  5
1F2
102
{ACAD_REACTORS
330
EF
102
}
330
EF
100
AcDbVisualStyle
  2
Shaded with edges
 70
    26
177
     3
291
     0
 70
    58
 90
        2
176
     1
 90
        2
176
     1
 90
        1
176
     1
 90
        2
176
     1
 40
0.6
176
     1
 40
30.0
176
     1
 62
     7
420
 16777215
176
     1
 90
        1
176
     1
 90
        2
176
     1
 62
     7
176
     1
 62
   257
176
     1
 90
        2
176
     1
 90
        1
176
     1
 40
1.0
176
     1
 90
        8
176
     1
 62
   257
176
     1
 40
1.0
176
     1
 90
        1
176
     1
 90
        6
176
     1
 90
        2
176
     1
 62
     7
176
     1
 90
        3
176
     1
 90
        0
176
     1
 90
        0
176
     1
290
     0
176
     1
 90
        5
176
     1
 40
0.0
176
     1
 90
        0
176
     1
290
     0
176
     1
290
     1
176
     1
290
     1
176
     1
290
     0
176
     1
290
     0
176
     1
290
     0
176
     1
290
     0
176
     1
290
     0
176
     1
290
     0
176
     1
 90
       50
176
     1
 40
0.0
176
     1
 40
1.0
176
     1
 90
        0
176
     1
 62
    18
420
        0
176
     1
 90
       50
176
     1
 90
        3
176
     1
 62
     5
420
      255
176
     1
290
     0
176
     1
 90
       50
176
     1
 90
       50
176
     1
 90
       50
176
     1
290
     0
176
     1
 90
       50
176
     1
 62
   256
176
     0
 40
1.0
176
     0
 90
        2
176
     1
  1
strokes_ogs.tif
176
     1
290
     0
176
     1
 40
1.0
176
     1
 40
1.0
176
     1
1001
ACAD
1000
AcDbSavedByObjectVersion
1070
     0
  0
VISUALSTYLE
  5
1EF
102
{ACAD_REACTORS
330
EF
102
}
330
EF
100
AcDbVisualStyle
  2
Shades of Gray
 70
    23
177
     3
291
     0
 70
    58
 90
        2
176
     1
 90
        2
176
     1
 90
        3
176
     1
 90
        0
176
     1
 40
0.6
176
     1
 40
30.0
176
     1
 62
     7
420
 16777215
176
     1
 90
        2
176
     1
 90
        2
176
     1
 62
     7
176
     1
 62
     7
176
     1
 90
        1
176
     1
 90
        1
176
     1
 40
40.0
176
     1
 90
        8
176
     1
 62
     7
176
     1
 40
1.0
176
     1
 90
        1
176
     1
 90
        6
176
     1
 90
        2
176
     1
 62
     7
176
     1
 90
        3
176
     1
 90
        0
176
     1
 90
        0
176
     1
290
     0
176
     1
 90
        1
176
     1
 40
0.0
176
     1
 90
        0
176
     1
290
     0
176
     1
290
     1
176
     1
290
     1
176
     1
290
     0
176
     1
290
     0
176
     1
290
     0
176
     1
290
     0
176
     1
290
     0
176
     1
290
     0
176
     1
 90
       50
176
     1
 40
0.0
176
     1
 40
1.0
176
     1
 90
        0
176
     1
 62
    18
420
        0
176
     1
 90
       50
176
     1
 90
        3
176
     1
 62
     5
420
      255
176
     1
290
     0
176
     1
 90
       50
176
     1
 90
       50
176
     1
 90
       50
176
     1
290
     0
176
     1
 90
       50
176
     1
 62
   256
176
     0
 40
1.0
176
     0
 90
        2
176
     1
  1
strokes_ogs.tif
176
     1
290
     0
176
     1
 40
1.0
176
     1
 40
1.0
176
     1
1001
ACAD
1000
AcDbSavedByObjectVersion
1070
     0
  0
VISUALSTYLE
  5
1F0
102
{ACAD_REACTORS
330
EF
102
}
330
EF
100
AcDbVisualStyle
  2
Sketchy
 70
    24
177
     3
291
     0
 70
    58
 90
        1
176
     1
 90
        2
176
     1
 90
        2
176
     1
 90
        0
176
     1
 40
0.6
176
     1
 40
30.0
176
     1
 62
     7
420
 16777215
176
     1
 90
        2
176
     1
 90
        2
176
     1
 62
     7
176
     1
 62
     7
176
     1
 90
        1
176
     1
 90
        1
176
     1
 40
40.0
176
     1
 90
       11
176
     1
 62
     7
176
     1
 40
1.0
176
     1
 90
        1
176
     1
 90
        6
176
     1
 90
        2
176
     1
 62
     7
176
     1
 90
        6
176
     1
 90
        0
176
     1
 90
        0
176
     1
290
     0
176
     1
 90
        1
176
     1
 40
0.0
176
     1
 90
        0
176
     1
290
     0
176
     1
290
     1
176
     1
290
     1
176
     1
290
     0
176
     1
290
     0
176
     1
290
     0
176
     1
290
     0
176
     1
290
     0
176
     1
290
     0
176
     1
 90
       50
176
     1
 40
0.0
176
     1
 40
1.0
176
     1
 90
        0
176
     1
 62
    18
420
        0
176
     1
 90
       50
176
     1
 90
        3
176
     1
 62
     5
420
      255
176
     1
290
     0
176
     1
 90
       50
176
     1
 90
       50
176
     1
 90
       50
176
     1
290
     0
176
     1
 90
       50
176
     1
 62
   256
176
     0
 40
1.0
176
     0
 90
        2
176
     1
  1
strokes_ogs.tif
176
     1
290
     0
176
     1
 40
1.0
176
     1
 40
1.0
176
     1
1001
ACAD
1000
AcDbSavedByObjectVersion
1070
     0
  0
VISUALSTYLE
  5
FC
102
{ACAD_REACTORS
330
EF
102
}
330
EF
100
AcDbVisualStyle
  2
Thicken
 70
    13
177
     3
291
     1
 70
    58
 90
        2
176
     1
 90
        2
176
     1
 90
        1
176
     1
 90
        0
176
     1
 40
0.6
176
     1
 40
30.0
176
     1
 62
     7
420
 16777215
176
     1
 90
        1
176
     1
 90
        4
176
     1
 62
     7
176
     1
 62
   257
176
     1
 90
        1
176
     1
 90
        1
176
     1
 40
1.0
176
     1
 90
       12
176
     1
 62
     7
176
     1
 40
1.0
176
     1
 90
        1
176
     1
 90
        6
176
     1
 90
        2
176
     1
 62
     7
176
     1
 90
        5
176
     1
 90
        0
176
     1
 90
        0
176
     1
290
     0
176
     1
 90
        1
176
     1
 40
0.0
176
     1
 90
        0
176
     1
290
     0
176
     1
290
     1
176
     1
290
     1
176
     1
290
     0
176
     1
290
     0
176
     1
290
     0
176
     1
290
     0
176
     1
290
     0
176
     1
290
     0
176
     1
 90
       50
176
     1
 40
0.0
176
     1
 40
1.0
176
     1
 90
        0
176
     1
 62
    18
420
        0
176
     1
 90
       50
176
     1
 90
        3
176
     1
 62
     5
420
      255
176
     1
290
     0
176
     1
 90
       50
176
     1
 90
       50
176
     1
 90
       50
176
     1
290
     0
176
     1
 90
       50
176
     1
 62
   256
176
     0
 40
1.0
176
     0
 90
        2
176
     1
  1
strokes_ogs.tif
176
     1
290
     0
176
     1
 40
1.0
176
     1
 40
1.0
176
     1
1001
ACAD
1000
AcDbSavedByObjectVersion
1070
     0
  0
VISUALSTYLE
  5
F6
102
{ACAD_REACTORS
330
EF
102
}
330
EF
100
AcDbVisualStyle
  2
Wireframe
 70
     5
177
     3
291
     0
 70
    58
 90
        0
176
     1
 90
        2
176
     1
 90
        0
176
     1
 90
        0
176
     1
 40
0.6
176
     1
 40
30.0
176
     1
 62
     7
420
 16777215
176
     1
 90
        1
176
     1
 90
        4
176
     1
 62
     7
176
     1
 62
   257
176
     1
 90
        1
176
     1
 90
        1
176
     1
 40
1.0
176
     1
 90
        0
176
     1
 62
   257
176
     1
 40
1.0
176
     1
 90
        1
176
     1
 90
        6
176
     1
 90
        2
176
     1
 62
     7
176
     1
 90
        3
176
     1
 90
        0
176
     1
 90
        0
176
     1
290
     0
176
     1
 90
        1
176
     1
 40
0.0
176
     1
 90
        0
176
     1
290
     0
176
     1
290
     1
176
     1
290
     1
176
     1
290
     0
176
     1
290
     0
176
     1
290
     0
176
     1
290
     0
176
     1
290
     0
176
     1
290
     0
176
     1
 90
       50
176
     1
 40
0.0
176
     1
 40
1.0
176
     1
 90
        0
176
     1
 62
    18
420
        0
176
     1
 90
       50
176
     1
 90
        3
176
     1
 62
     5
420
      255
176
     1
290
     0
176
     1
 90
       50
176
     1
 90
       50
176
     1
 90
       50
176
     1
290
     0
176
     1
 90
       50
176
     1
 62
   256
176
     0
 40
1.0
176
     0
 90
        2
176
     1
  1
strokes_ogs.tif
176
     1
290
     0
176
     1
 40
1.0
176
     1
 40
1.0
176
     1
1001
ACAD
1000
AcDbSavedByObjectVersion
1070
     0
  0
VISUALSTYLE
  5
1F1
102
{ACAD_REACTORS
330
EF
102
}
330
EF
100
AcDbVisualStyle
  2
X-Ray
 70
    25
177
     3
291
     0
 70
    58
 90
        2
176
     1
 90
        2
176
     1
 90
        1
176
     1
 90
        1
176
     1
 40
0.5
176
     1
 40
30.0
176
     1
 62
     7
420
 16777215
176
     1
 90
        1
176
     1
 90
        0
176
     1
 62
     7
176
     1
 62
   257
176
     1
 90
        1
176
     1
 90
        1
176
     1
 40
1.0
176
     1
 90
        8
176
     1
 62
     7
176
     1
 40
1.0
176
     1
 90
        1
176
     1
 90
        6
176
     1
 90
        2
176
     1
 62
     7
176
     1
 90
        3
176
     1
 90
        0
176
     1
 90
        0
176
     1
290
     0
176
     1
 90
       13
176
     1
 40
0.0
176
     1
 90
        0
176
     1
290
     0
176
     1
290
     1
176
     1
290
     1
176
     1
290
     0
176
     1
290
     0
176
     1
290
     0
176
     1
290
     0
176
     1
290
     0
176
     1
290
     0
176
     1
 90
       50
176
     1
 40
0.0
176
     1
 40
1.0
176
     1
 90
        0
176
     1
 62
    18
420
        0
176
     1
 90
       50
176
     1
 90
        3
176
     1
 62
     5
420
      255
176
     1
290
     0
176
     1
 90
       50
176
     1
 90
       50
176
     1
 90
       50
176
     1
290
     0
176
     1
 90
       50
176
     1
 62
   256
176
     0
 40
1.0
176
     0
 90
        2
176
     1
  1
strokes_ogs.tif
176
     1
290
     0
176
     1
 40
1.0
176
     1
 40
1.0
176
     1
1001
ACAD
1000
AcDbSavedByObjectVersion
1070
     0
  0
DICTIONARYVAR
  5
146
102
{ACAD_REACTORS
330
5E
102
}
330
5E
100
DictionaryVariables
280
     0
  1
1:1
  0
DICTIONARYVAR
  5
145
102
{ACAD_REACTORS
330
5E
102
}
330
5E
100
DictionaryVariables
280
     0
  1
STANDARD
  0
DICTIONARYVAR
  5
84
102
{ACAD_REACTORS
330
5E
102
}
330
5E
100
DictionaryVariables
280
     0
  1
STANDARD
  0
DICTIONARYVAR
  5
227
102
{ACAD_REACTORS
330
5E
102
}
330
5E
100
DictionaryVariables
280
     0
  1
Metric50
  0
DICTIONARYVAR
  5
228
102
{ACAD_REACTORS
330
5E
102
}
330
5E
100
DictionaryVariables
280
     0
  1
Metric50
  0
DICTIONARYVAR
  5
5F
102
{ACAD_REACTORS
330
5E
102
}
330
5E
100
DictionaryVariables
280
     0
  1
2
  0
DICTIONARYVAR
  5
63
102
{ACAD_REACTORS
330
5E
102
}
330
5E
100
DictionaryVariables
280
     0
  1
1
  0
DICTIONARYVAR
  5
1AE
102
{ACAD_REACTORS
330
5E
102
}
330
5E
100
DictionaryVariables
280
     0
  1
0
  0
DICTIONARYVAR
  5
1AF
102
{ACAD_REACTORS
330
5E
102
}
330
5E
100
DictionaryVariables
280
     0
  1
0
  0
DICTIONARYVAR
  5
625
102
{ACAD_REACTORS
330
5E
102
}
330
5E
100
DictionaryVariables
280
     0
  1
2
  0
DICTIONARYVAR
  5
624
102
{ACAD_REACTORS
330
5E
102
}
330
5E
100
DictionaryVariables
280
     0
  1
1
  0
DICTIONARY
  5
18A7
102
{ACAD_REACTORS
330
18A5
102
}
330
18A5
100
AcDbDictionary
281
     1
  0
DICTIONARY
  5
18A6
102
{ACAD_REACTORS
330
18A5
102
}
330
18A5
100
AcDbDictionary
281
     1
  3
1372967268096
350
18A0
  3
1372967268112
350
18A1
  3
1372967268128
350
18A2
  3
1372967268144
350
18A3
  3
1372967268160
350
18A4
  0
DICTIONARY
  5
18AA
330
21C
100
AcDbDictionary
280
     1
281
     1
  3
ACAD_XREC_ROUNDTRIP
360
18AB
  0
DICTIONARY
  5
205
330
22
100
AcDbDictionary
280
     1
281
     1
  0
DICTIONARY
  5
5EB
330
D3
100
AcDbDictionary
280
     1
281
     1
  0
DICTIONARY
  5
1F9
330
ED
100
AcDbDictionary
280
     1
281
     1
  3
FBXASSET
360
1FA
  0
DICTIONARY
  5
1F7
330
EC
100
AcDbDictionary
280
     1
281
     1
  3
FBXASSET
360
1F8
  0
DICTIONARY
  5
173
330
EE
100
AcDbDictionary
280
     1
281
     1
  3
BUMPTILE
360
175
  3
DIFFUSETILE
360
174
  3
FBXASSET
360
1FB
  3
OPACITYTILE
360
176
  3
REFLECTIONTILE
360
177
  0
XRECORD
  5
17EA
102
{ACAD_REACTORS
330
17E8
102
}
330
17E8
100
AcDbXrecord
280
     1
102
ACAD_MENTALRAY_SETTING_RT
330
17D2
 70
     1
  0
XRECORD
  5
17E9
102
{ACAD_REACTORS
330
17E8
102
}
330
17E8
100
AcDbXrecord
280
     1
 70
     2
 71
     3
 72
     0
  0
DICTIONARY
  5
18A8
330
21A
100
AcDbDictionary
280
     1
281
     1
  3
ACAD_XREC_ROUNDTRIP
360
18A9
  0
DICTIONARY
  5
162
330
7F
100
AcDbDictionary
280
     1
281
     1
  3
ACAD_ROUNDTRIP_2008_TABLESTYLE_CELLSTYLEMAP
360
189E
  0
XRECORD
  5
18A0
102
{ACAD_REACTORS
330
18A6
102
}
330
18A6
100
AcDbXrecord
280
     1
  1
AcDb_Thumbnail_Schema
102
{ATTRRECORD
341
18A1
  2
AcDbDs::TreatedAsObjectData
280
     1
291
     1
102
ATTRRECORD}
102
{ATTRRECORD
341
18A2
  2
AcDbDs::Legacy
280
     1
291
     1
102
ATTRRECORD}
  2
AcDbDs::ID
280
    10
 91
        8
102
{ATTRRECORD
341
18A3
  2
AcDs:Indexable
280
     1
291
     1
102
ATTRRECORD}
102
{ATTRRECORD
341
18A4
  2
AcDbDs::HandleAttribute
280
     7
282
     1
102
ATTRRECORD}
  2
Thumbnail_Data
280
    15
 91
        0
  0
XRECORD
  5
18A1
102
{ACAD_REACTORS
330
18A6
102
}
330
18A6
100
AcDbXrecord
280
     1
  1
AcDbDs::TreatedAsObjectDataSchema
  2
AcDbDs::TreatedAsObjectData
280
     1
 91
        0
  0
XRECORD
  5
18A2
102
{ACAD_REACTORS
330
18A6
102
}
330
18A6
100
AcDbXrecord
280
     1
  1
AcDbDs::LegacySchema
  2
AcDbDs::Legacy
280
     1
 91
        0
  0
XRECORD
  5
18A3
102
{ACAD_REACTORS
330
18A6
102
}
330
18A6
100
AcDbXrecord
280
     1
  1
AcDbDs::IndexedPropertySchema
  2
AcDs:Indexable
280
     1
 91
        0
  0
XRECORD
  5
18A4
102
{ACAD_REACTORS
330
18A6
102
}
330
18A6
100
AcDbXrecord
280
     1
  1
AcDbDs::HandleAttributeSchema
  2
AcDbDs::HandleAttribute
280
     7
 91
        1
284
     1
  0
XRECORD
  5
18AB
102
{ACAD_REACTORS
330
18AA
102
}
330
18AA
100
AcDbXrecord
280
     1
102
DISPLAYNAME
  1
Metric50
102
FLAGS
 90
        0
  0
XRECORD
  5
1FA
102
{ACAD_REACTORS
330
1F9
102
}
330
1F9
100
AcDbXrecord
280
     1
 70
     1
 90
429727718
  1
D62C5603-E3A1-4AEA-B7FB-FE5D8D0755AF
310
504B03040A0000080000CC70623B3DEE336E79000000790000001B0000006175746F6465736B2D64657369676E2D7061636B6167652E786D6C3C3F786D6C2076657273696F6E3D22312E302220656E636F64696E673D227574662D3822203F3E3C666F726D6174733E3C666F726D61743E687474703A2F2F736368656D612E
310
6175746F6465736B2E636F6D2F64657369676E2D7061636B6167652F323030393C2F666F726D61743E3C2F666F726D6174733E504B0304140006080800CC70623BD486FD9CA0000000F4000000130000005B436F6E74656E745F54797065735D2E786D6C7D8EC10E82300C865F65E91D8A1E8C310C0EEA1BF002731658846E
310
D98AC1B77784ABF1D8FE5FBFBF75BBCE937A534CCEB38643598122B6FEE978D0B0485F9C41B54DDD7D022595594E1A469170414C76A4D9A4D207E29CF43ECE46F218070CC6BECC4078ACAA135ACF422C856C0E68EA1BF5669944DDD7BCDE7B1F8E415D77AECB980613C2E4AC91FC167A2B244592486606FC29C8FD7F045B9A
310
EF7053A7E60B504B0304140006080800CC70623B853B8169EB0000007C01000008000000636F72652E786D6C8D90416EC3201045AF62CDB6C206821CC7C244919D9CA01740401C94182C03558F5F9C3852BBEB6A467FFE9B197D7EFC9E1EC5975982F5AE035262288C535E5B377690E21535501C055FBC8FBF6C503839990E
310
5619041F179FE64D52DE45E362569DD7661365082642A11EB9E920A89B99642953CC8E702F67A9EE7234257977194EC9EAE275C4EABCCF5EAD5940D4AC6F0E35A568B8F43562CD7046CD199FD07E60174276A7BE677B5EADB0E0D14EEFFB6A31321A0D82627C4084204C3F096B71DD52F6819B16635EADF63F509AF53FA164
310
5DDCD1EDDD17164090FCC8732078B56691CB33A85CD7DCC40F504B0304140006080800CC70623B55019EA25F0000007C00000007000000636E782E786D6C4DCB3B0E80201045D1AD90E915ED2CF8AC45050C11660C8261F98AB1B07AC9C97D42D718D865D3E909258CFD00CCE24AC6E326A164D74DC0B4128928FF32603847
310
2BA13128B1252AC747C6BAB984FC68F0B87FE8960A5C09FE86CFB69FBA01504B0304140006080800CC70623BDBABAAF470010000D40300000C0000006662782F636F72652E786D6CC553D16E823014FD95A6AF4B694182CC941A83FA05FB810A9511A125A5257EFE2E82712ECEB8A7F100CD39F7F69E734AF9FADC366850B6
310
AF8DCE7018308C942E4C59EB2AC3DE1D498AD15A706B8CFB56869196ADCAF00863C12B6B7C374385D14E6907A836A59A41D9F7CA615434B0C8705F7CAA5606D23BA8E84F41278B93AC54100640439DE0BDB320004D43C63716C7C399D30917DCFBBA9CD9BA8469F5B156168B24CED3F7248AC8769F27244EB73B92EED8862C
310
B7F13E0C179B3C8F979C8ECD82BBBABDAA2BAC924E9558448CBD9330242CFA08E3154B5651FCC6D215639C8EE5774DBE2B5F6CF2B5768B68963BB5F5588420E442FC700B1139D4CB01F450C1E918227C2E09DF070D8140C84E1E9AAB8F1340832A9CB13130A5F1376A908D57309505ECF2A0DF179C4E9D30F5B239B87E3823
310
7A79C6F31DE1A8A5AEC08474B03C7837EAE4938639B44E5932B833D2C6B6B279CDC613877FA26EE21F4A2A4C63EC7F29A2F301D1F9F7A0E37D145F504B0304140006080800CC70623B9C113CC27E0000009D0000000B0000006662782F636E782E786D6C4DCCDF0A83201C86E15B91DFB94BFB330DD428C8FB886521330DA7
310
6397BF1A1DECE883878F57749FCDA1B7892F1BBC047A23808C7F84D9FA55424E0BE6803A256208E9EF06C84F9B91703228B1C690F78B66B34CD9A5439DF5CF0BFBF65E35BCA1B8D6A5C6F540381E886698B5741C695F9503EBA150A2F8958E3DC3EA0B504B0304140006080800CC70623B7DF2F77C2A010000120200003100
310
00006662782F41393633353835312D344632462D344230382D423046372D3739314545314133324237412F636F72652E786D6C8D51DB8EC22014FC15C2939B0D2DB4B45643319AE817EC0F6041255A68B86CFCFC856D4D76DF7CE190393373060EDB3DC707F856CE6B6B7A480A0C81328395DA5C7B18C3057510EC3873D686
310
3F34088C18550F330C39BB3A1BA7051AAC09CA84841A2BD5020AEF55806078A44B0FFD7053A328440C89E1EFC52486BBB8AA8214A99D789CF9E05200300FC927E4FB4D5B375D43103D5527440FB843077C5AA3F5861C8F645F5787F59E95B390B318B55CE45AA638FAA2957BD7248B390B7A7CC51F9C124149C82B8C378810
310
84AB2F42B7B8DD56F413775B8C5999E9FF4471926F8AA236A1AE96B8B3CC434E5839373893369E1FAF30EA395917409EB7F26AF8801C171837A4A6AC9C89E9F9C9B1A58BA30FD6A5EF5DDDCF894B9AD9B6A59C957943A9FCAE2FD5BC4DFE03504B0304140006080800CC70623BAD7543B64E01000033030000300000006662
310
782F41393633353835312D344632462D344230382D423046372D3739314545314133324237412F636E782E786D6CD593CD6EC32010845F0571AD6CE3D48AD20813A9873E410FBD12D82434182C7EAAE6EDBB2424CD25871E7B41D6EC30B3FA84F9E67BB2E40B4234DE8DB46F1925E094D7C6ED479AD3AE5951B2113C789FEE
310
6C943839C1488B4C05DF079FE72A69D8C96C13AAD6B8631503449F83828872B949AC57D26200B826A308D316B4064D6E46FCDA41C05550DC9E483A00797BFD207EFB092A45DE9514C1BBD22178396BD39D891265658C238DEA00936C654E5E433CB65A26D9F6EDB5EBC14EBF49A45CB856E66048291F6939A9A81BB5C89177
310
38143CA680F4AA299D66A042CEB3354A2684DC9D8D178FE0D9B8B41CAAD720F880EE7EF93C0C18769E099ECC04D5A102C8049A8A05632F4DDF376CF1DE0F6BB65C2F8627B65A33C6BB62177CEBBDAD973006829F89F22E814B54F4BC2BE347F8AA8F681390B50FA73F804400B5F542E796F19FF974E7F78DB802FE05E20750
310
4B0304140006080800CC70623BE75B7789680500003C100000340000006662782F41393633353835312D344632462D344230382D423046372D3739314545314133324237412F6F626A656374732E786D6CAD575B8F9B3818FD2B887D06C22499CB8AA1CA655245D5B455A356FB305264C061D8018C6C3393D95FBFC7600890
310
A4CD5EF210B0B1BFEBF98E3F7B1FF6596ABC522E1296DF9BAE3D320D9A872C4AF2F8DE2CE5CEBA358D0FBEC719939D65A691938CDE9B6ADAF4BD98B3B2D05311DD91329583D9D5FC0F438434A7A611A644887B5384CF34233629258BA878B12322891DEFF6B66BD70BFB62634E8AE781D082709A4B588AF91C528CDA28B73F
310
1C998EEF39EABBEFA97FBD6A7C7E9553F9D3D79FE442923C3C523610337627CB87ABE99D359D4CC6D6E4FACAB5E6ABF9D2726FC6A3C5F56271377BB88362213924694B38DD99FE47C48627A1E7D49F5A8BB5E1A74C0A599ED3B0F21F1E56366B89112D681E218F0915D0D6F17AD41FBA2A369DCF6335D62ABBD39779D5DDD1
310
11D4D8DE3CBB96B2E04FB8202E41051754A1AA8E8F76B4C6DFE810B580B1547F4B84911149794252234D024EF8BBE963A95AE27B3D310A9D5C215C7960FAEE415ED75694C6AFB17BCACA5D99A60A9AA65F217B0BFC53292ACB92BF283FAD0D3621576592CB5BED907C2FA8E9DF794E35E97BEA31BED21FEB401ABB94C44839
310
DCACBF0E1C5DA8DA5B2F4DFFD32AD86F543D9E565E7056502E157C00AD2671CD534549AB752FCA9CDA00677A313F04E51B22FF19E57B300579E3C97EB29F682D92935CEC18CF901B7B54FD8C51F362B56FC72FE0B3C1EAE335EDCCBF5AEC39ADB17DC238973F804BA5E6F6BFE7AF1FB32E523BE9F3BD571418E3631DCA4D48
310
5250CF639223210A9446CA30052EDF057BD35F8329C1ECD84552BF0DC8D18BE7BCE23BFE6BD960AB4A7DE79923A103BEBD80F911CBAA2C60DB19B01CF164A5583B772EE6D3FFA56666CBCDA74DC97724A48F9A58967497E489C4D979006FD7A05E227A1EBDD0F737C623387A9C844D3709995625106D157315F8B8392CD4E0
310
A0B9A720C4BE9829CEF37EA1E13111214D53925356365ADA634861B52519DD27A00AEB808EAF0628E6F435519D446F45CF2C9CF5214F0A15B2F6D06B79DA3EE3CBF7F56780D2F4E7EF73A0F5E5B02A38D07DC852C6B7C1FBB6664213E0C39E3EBA7FF4E1AD23EA2829407C85E586727488B751B2DB9502BC7B228A3FD68B6E
310
A65A22397E690AA8D158D7E404EC8CDA235CC3B7D1898680131CEC2CDF2638C65196279577750F15884AEE19F94199155B92B13297978469D4F8D358DF0AEF7631E28DC8F0D9F437D5D39A83B2231A1D52D543813A824EF8D44BCFF2FA6A31BD1E8DAD87F1CCB526B3879935BF59CDADD5C37479BB1CDD4CA7B3556B516589
310
EF352754B706114D9C885EC9131DE6EFEB43D99AFE2391C2F958179413D7CFEF6B1B6DB1E7600F00DE6E5C67454A339A4BA2E0FBA85ED26F045D454F463DBFCE484C2F90F2E5E3666003662ED8F755951A7D1BECD5B30B550B2785C8E7320B7292A4838DDA71BBC863ED7613CAF659337A3354231D4FF4A182A54904C2898C
310
98B28C4AD0CE056CCF332A80986E571EE9DBC305BB5FEB7E509220A58D25CF042D712A806AC0AD0C657FDEF80D2D9CEAA2EE4D1C76F60BFE74219A06527D6F82DF6412526107381E55E353090704D085B52408A8913C4ED159D79BDA71BB4BC506F4831350EB6F975CD22D69BF7AC49B91A2C0A9DDA3D5CA36AD20FC478E37
310
E61844E2352865EBCB61A275A65283CAAA9DD27703B4102F5AF51EF5F573B75CBB5AD38BC845F7A49F82A0966A49C2E3EA5EA0ECD326CD965F1DB402C6FA8B51A4658C5C5E2EC9E214602E55810345408596591009A82E7E7FFACA19EEA299B14A0081A705CB3296EBC14CDF658DCD336EA6D1136881AAEB87B81AB9EE53D5
310
F5EB8BC8362082DA24122F98680A4E7930C01A0079749CEA14382A0783E5EBA5A10F8C098456A03D6A4AEB6BB881E2513747552A5DB22C7EDAF83BD5528081A365F7FF06504B0304140006080000CC70623B000000000000000000000000350000006662782F41393633353835312D344632462D344230382D423046372D37
310
39314545314133324237412F76657274696365732E62696E504B0304140006080800CC70623BF270F1330600000004000000360000006662782F41393633353835312D344632462D344230382D423046372D3739314545314133324237412F747269616E676C65732E62696E636660600000504B0304140006080000CC7062
310
3B000000000000000000000000370000006662782F41393633353835312D344632462D344230382D423046372D3739314545314133324237412F617474726962757465732E62696E504B0304140006080800CC70623B08DA0BD19000000041010000360000006662782F41393633353835312D344632462D344230382D4230
310
46372D3739314545314133324237412F6469726563746F72792E786D6C858F410AC3201045AF22B36F53E9A60B35CBEEBAE80D244E44489C6234F4F835464A48035D0DF398FF9F8AF63D0E6CC63039F212F8F9020C7D47C6792B21C5FE7403D62A1188E2E60C98D7234A5830286103A55745067B9D86B8A3CF9C7F90C11DE6
310
07FB144396D7B6A82D282E9A152AD114D5EF2CB866EEE831B8EEA07A7BB5A8D7D61A2BAAEB7FD5F70921FF497D00504B0304140006080800CC70623BEDD1DC58FD000000A00100003B0000006662782F41393633353835312D344632462D344230382D423046372D3739314545314133324237412F7265736F75726365732F
310
636F72652E786D6C8D504B6E833010BD0A9A6D65B00922041947112427E8052C33A156828DFCA97AFC9A40A576D7CDCCE87D344F8F9FBFE667F689CE6B6B3A6039850C8DB2A336530731DC4903D95970676DF82583CCC8193B5861107C72362E3BA4AC096842428D1D7107A5F7182053CF7474E0D507CE32973124857FE48B
310
540F3961CEF244279DE03EB81420DB9EAC1384436FA353E879B1B182C7A8C75DA3C7F453DF353A1075D537A7BA6464B8F535A99AE14A9A2BBD90E350DD183B5CFABE3AF262350B1EF4FC9351399401471025A527C218A1E53BAB5A5AB765F5469B96525EACF23FA6B88CFF34456DC2A1DCE36E360F82A5202F42F062ED2BAD
310
579969AFDD8A6F504B010214000A0000080000CC70623B3DEE336E79000000790000001B00000000000000000000000000000000006175746F6465736B2D64657369676E2D7061636B6167652E786D6C504B01021400140006080800CC70623BD486FD9CA0000000F40000001300000000000000000000000000B20000005B
310
436F6E74656E745F54797065735D2E786D6C504B01021400140006080800CC70623B853B8169EB0000007C010000080000000000000000000000000083010000636F72652E786D6C504B01021400140006080800CC70623B55019EA25F0000007C000000070000000000000000000000000094020000636E782E786D6C504B
310
01021400140006080800CC70623BDBABAAF470010000D40300000C00000000000000000000000000180300006662782F636F72652E786D6C504B01021400140006080800CC70623B9C113CC27E0000009D0000000B00000000000000000000000000B20400006662782F636E782E786D6C504B01021400140006080800CC70
310
623B7DF2F77C2A010000120200003100000000000000000000000000590500006662782F41393633353835312D344632462D344230382D423046372D3739314545314133324237412F636F72652E786D6C504B01021400140006080800CC70623BAD7543B64E010000330300003000000000000000000000000000D2060000
310
6662782F41393633353835312D344632462D344230382D423046372D3739314545314133324237412F636E782E786D6C504B01021400140006080800CC70623BE75B7789680500003C10000034000000000000000000000000006E0800006662782F41393633353835312D344632462D344230382D423046372D3739314545
310
314133324237412F6F626A656374732E786D6C504B01021400140006080000CC70623B0000000000000000000000003500000000000000000000000000280E00006662782F41393633353835312D344632462D344230382D423046372D3739314545314133324237412F76657274696365732E62696E504B01021400140006
310
080800CC70623BF270F133060000000400000036000000000000000000000000007B0E00006662782F41393633353835312D344632462D344230382D423046372D3739314545314133324237412F747269616E676C65732E62696E504B01021400140006080000CC70623B0000000000000000000000003700000000000000
310
000000000000D50E00006662782F41393633353835312D344632462D344230382D423046372D3739314545314133324237412F617474726962757465732E62696E504B01021400140006080800CC70623B08DA0BD1900000004101000036000000000000000000000000002A0F00006662782F41393633353835312D344632
310
462D344230382D423046372D3739314545314133324237412F6469726563746F72792E786D6C504B01021400140006080800CC70623BEDD1DC58FD000000A00100003B000000000000000000000000000E1000006662782F41393633353835312D344632462D344230382D423046372D3739314545314133324237412F7265
310
736F75726365732F636F72652E786D6C504B0506000000000E000E0080040000641100000000
  0
XRECORD
  5
1F8
102
{ACAD_REACTORS
330
1F7
102
}
330
1F7
100
AcDbXrecord
280
     1
 70
     1
 90
429727718
  1
30362254-06B7-45E0-A893-8CFA70E3D6BC
310
504B03040A0000080000CC70623B3DEE336E79000000790000001B0000006175746F6465736B2D64657369676E2D7061636B6167652E786D6C3C3F786D6C2076657273696F6E3D22312E302220656E636F64696E673D227574662D3822203F3E3C666F726D6174733E3C666F726D61743E687474703A2F2F736368656D612E
310
6175746F6465736B2E636F6D2F64657369676E2D7061636B6167652F323030393C2F666F726D61743E3C2F666F726D6174733E504B0304140006080800CC70623BD486FD9CA0000000F4000000130000005B436F6E74656E745F54797065735D2E786D6C7D8EC10E82300C865F65E91D8A1E8C310C0EEA1BF002731658846E
310
D98AC1B77784ABF1D8FE5FBFBF75BBCE937A534CCEB38643598122B6FEE978D0B0485F9C41B54DDD7D022595594E1A469170414C76A4D9A4D207E29CF43ECE46F218070CC6BECC4078ACAA135ACF422C856C0E68EA1BF5669944DDD7BCDE7B1F8E415D77AECB980613C2E4AC91FC167A2B244592486606FC29C8FD7F045B9A
310
EF7053A7E60B504B0304140006080800CC70623B1EC5D7A3EB0000007C01000008000000636F72652E786D6C8D90416EC3201045AF82665B6103C6756C6122AB4D4ED00B204C5C94182C03558F5F9C3852BBEB6A467FFE9B197D71FC9E6FE8CBACC17AD7032D0820E3B41FAD9B7A48F1820F808E52ACDEC75F36404ECDA687
310
4D0629A6D5A76597B477D1B89855E747B38B2A041301E95B6E7A08FAD3CCAA50296647B8168BD2573599823EBB0CA76447F43862C7BCCF5EAC59410E4DDD9C7973C2755553CCCFA4C603E3040F1565ED3B1FDE4E432BCA0D9622DAF9795FAF464533826484B498524CD807E51D79ED187F21878E10516EF63F505AC67F42C9
310
BA58B1FDDD071640D2FCC87D2045B96591CB3DA85CB7DCE40F504B0304140006080800CC70623B55019EA25F0000007C00000007000000636E782E786D6C4DCB3B0E80201045D1AD90E915ED2CF8AC45050C11660C8261F98AB1B07AC9C97D42D718D865D3E909258CFD00CCE24AC6E326A164D74DC0B4128928FF32603847
310
2BA13128B1252AC747C6BAB984FC68F0B87FE8960A5C09FE86CFB69FBA01504B0304140006080800CC70623B8C9102E971010000D40300000C0000006662782F636F72652E786D6CC5535B6E833010BC8AE5DF0A6C08340F1947A84D4ED00B38C6A128602363A31CBFCB234A53A551FA553EC09AD9F5CE8C31DB9E9B1AF5CA
310
7695D1198E428A91D2D214952E33ECDD315861B4E5CC1AE3BE9561A445A3323CC098B3D21ADFCE9034DA29ED00D5A6503328BA4E398C640D8B0C77F253352214DE4145770A5B214FA2546114020D759C75CE8200340D19DE981F0F6746269C33EFAB6266AB02A655C74A59CCF365BADC27CB5D902ED22848F6340DF238A141
310
BE88E2F57B92BFEDF23523433367AE6A2EEAA455C2A902F398D2751045018D3FA264435F3771F242571B4A1919CA6F9A7C5B3CD9E42BED16F12C776AEB308F40C848FC700B1139D4891EF410CEC810227CC6846F8386402064270EF5C5C709A05E49676C024C61FC95EA45ED154CA5211D1FF4FB8291A913A68E9B83EBBB33
310
E2A7673CDE118E5AE8124C0807CB8377834E366998436B950D7A7746DAD846D4CFD978E0F04FD455FC5D49D2D4C6FE9722321F10997F0F32DC47FE05504B0304140006080800CC70623BFFEA85907E0000009D0000000B0000006662782F636E782E786D6C4DCCD10A83201886E15B91FFDC95D95A811AB6F23E625948A6C3
310
E9D8E5AF46073BFAE0E1E365ED67B3E8ADC3CB78C7815C7240DA3DFC64DCC221C519D7805AC182F7F1EF06C88D9BE6703008B6049F9E274D7A1E938DBB5AE3D6131B2589BA0D3D965551E0B2EA732C9B9A624AAEB41E3A557677029960D9AFB4EF11165F504B0304140006080800CC70623B4FEEA4082C0100001202000031
310
0000006662782F39464131463745442D413632322D343644302D413938332D3331353338454246344243312F636F72652E786D6C8D515B6EC32010BC0AE2AB55850DD871ED0813254D72825EC00192A2C460F1A872FC42ED48ED5F7E00CDCECCCEB26C731F6FE05B39AFADE921293004CA082BB5B9F43086336A21D870E6AC
310
0D7F68109861543DCC30E4ECE26C9C164858139409093556AA051CBC570102714B8F1E7AF1A5C6A11862480C7F2DA6415C878B2A4891CA89C7990F2E050073937C42DE1DB7E4F87ED8A36D4329AA9B3D46DBAEAD504556557BD81DEBDD0761E52CE42C462D17B996298E3E6BE59E35C962CE821E1FF18553435012728A7187
310
0841987E927A8D9B35ADDF70BBC6989599FE4F1427F9A4286A132ABAC49D651EF234CD5CE04CDA78BA3DC2A8FB645D00B9DF8B57E215725C60BCA2A463E54C4CE327C7A65E1C7DB02E7DEFCBF594B864C5CA6CDBD49C957943E9FA5D5FBAF336F90F504B0304140006080800CC70623BAD7543B64E01000033030000300000
310
006662782F39464131463745442D413632322D343644302D413938332D3331353338454246344243312F636E782E786D6CD593CD6EC32010845F0571AD6CE3D48AD20813A9873E410FBD12D82434182C7EAAE6EDBB2424CD25871E7B41D6EC30B3FA84F9E67BB2E40B4234DE8DB46F1925E094D7C6ED479AD3AE5951B2113C
310
789FEE6C943839C1488B4C05DF079FE72A69D8C96C13AAD6B8631503449F83828872B949AC57D26200B826A308D316B4064D6E46FCDA41C05550DC9E483A00797BFD207EFB092A45DE9514C1BBD22178396BD39D891265658C238DEA00936C654E5E433CB65A26D9F6EDB5EBC14EBF49A45CB856E66048291F6939A9A81BB5
310
C8917738143CA680F4AA299D66A042CEB3354A2684DC9D8D178FE0D9B8B41CAAD720F880EE7EF93C0C18769E099ECC04D5A102C8049A8A05632F4DDF376CF1DE0F6BB65C2F8627B65A33C6BB62177CEBBDAD973006829F89F22E814B54F4BC2BE347F8AA8F681390B50FA73F804400B5F542E796F19FF974E7F78DB802FE05
310
E207504B0304140006080800CC70623B16AB87BA640500003C100000340000006662782F39464131463745442D413632322D343644302D413938332D3331353338454246344243312F6F626A656374732E786D6CAD575B6FA33818FD2B887DE6924B3BED8A326A92B68A663B534DD4D13E548A0C38942D60649B369D5FBFC7
310
600890A493BDE42160637FD7F31D7FF63E6FB3D478A55C242CBF3247B66B1A340F5994E4F19559CA8D75611A9F7D8F33263BCB4C232719BD32D5B4E97B316765A1A722BA21652A07B3B7B33F0D11D29C9A46981221AE4C113ED38CD8A4942CA2E2C58E882476BCD9DA23BB5ED8171B73523C0F841684D35CC252CCE79062D4
310
468DFA43D7747CCF51DF7D4FFDEB5593E3AB9CCA9FBEFE241792E4E19EB28198C968BAB8199F5D5A67D3E9C49A9E8F47D6EC76B6B0469F26EEFC7C3EBFBCBEB98462213924694B38DD98FE1D62C393D073EA4FADC5DAF04326852CCF6958F90F0F2B9BB5C48816348F90C7840A68EB78EDF68723159BCEE7891A6B95DDE9D3
310
BCEAEEE8086A6C6F9E5D4B59F0175C10A7A0820BAA5055C7473B5AE3CFDD452D602CD5DF12616444529E90D448938013FE6EFA58AA96F85E4F8C42275708571E98FE6827AF6B2B4AE3D7D83D64E5A64C53054DD3AF90BD06FEA9149565C94FCA0F6B834DC85599E4F2423B24DF0B6AFA979E534DFA9E7A4CC6FA631D486393
310
921829879BF5D781A373557BCB85E97FB90DB62B558F8795179C15944B051F40AB495CF35451D26A4727654E6D8033BD98EF82F21D91FF8AF2DD9982BCF1643BDD4EB516C9492E368C67C88DED563FC36D5EACF66DFF057C3658BDBFA69DF9578B3DA735B64F18C7F20770A9D45CFCF7FCF563D6456A277DBEF78A02637CA2
310
43B90A490AEAB94F72244481D24819A6C0E59B606BFA4B3025981DBB48EAB701D97BF19C577CC77F2D1B6C55A9EF3C732474C0B727303F625995056C3B02963D9EAC146BE78EC5FCEC7FA999EBC5EACBAAE41B12D27B4D2C0BBA49F244E2ECDC81B76B502F113D8F5EE8FB1BE3111CDD4FC2AA9B844CAB1288B68AB90A7CDC
310
1C166AB0D3DC5310625FCC14E779BFD0709F8890A629C9292B1B2DED31A4B0DA928CEE135085754027E3018A397D4D5427D15BD1330B677DC8934285AC3DF45A9EB68FF8F2B8FC0A509AFEECFD0FF2DE25CC6047F7214B195F07EFEB9A094D800F7BFAE8FED187B78EA8A3A400F115961BCAD1215E47C966530AF0EE8128FE
310
58CEBB996A8964FFA529A046635D9353B0336A8F700DDF46271A024E70B0B37C9DE01847591E54DED53D54202AB947E4076556AC49C6CA5C9E1226B7F1A7B1BE15DEED62C41B91E1B3E9AFAAA735036547343A925075041DF0A9979E893B391F8FCFA6967B3EFB644DCF6E5CEBFAE272625DCC6FAF3FB93793C5F90CE1EF57
310
407342756B10D1C489E8953CD1617E5CEECAD6F4EF8914CE5D5D504E5C3F1F9736DA62CFC11E00BCDDB8CC8A9466349744C1F75EBDA4DF09BA8A9E8C7A7E9991989E20E5DBDD6A6003664ED8F7A04A8DBE0DF6EAD9B9AA858342E47399053949D2C146EDB85DE4B176BB0965FBAC19BD19AA918E27FA50C1D22402E144464C
310
59462568E704B6E71915404CB72B8FF4EDE184DDAF753F284990D2C6926782963815403548A70C657FDEF80D2D9CEAA2AE4C1C76F60BFE74219A06527D6582DF6412526107381E55E353090704D085B52408D0933C4ED159D79BDA71BB4BC506F4831350EB6F979CD22D69BF7AC49B91A2C0A9DDA3D5CA36AD20FC478E37E6
310
1844E2352865EBCB6EA275A652E3836BE04EFB400BF1A2556F515F1FBB35B2AB35BD889C744FFA1004B5544B121E57F70215746DD2F5E2C1412B602CBF19455AC6C8E5E9922C4E01E65215385004546899059180EAFCF7A707CE7017CD8CDB0410789AB32C63B91E5CEBBBACB17AC6CD347A022D5075FD106377347AAABA7E
310
7D11590744509B44E205134DC1290F06580320F78E537D3D73540E06CB970B431F185308AD40BBD794D6D77003C5A36E8EAA54BA64597CD8F83BD552A080A365F7FF06504B0304140006080000CC70623B000000000000000000000000350000006662782F39464131463745442D413632322D343644302D413938332D3331
310
353338454246344243312F76657274696365732E62696E504B0304140006080800CC70623BF270F1330600000004000000360000006662782F39464131463745442D413632322D343644302D413938332D3331353338454246344243312F747269616E676C65732E62696E636660600000504B0304140006080000CC70623B
310
000000000000000000000000370000006662782F39464131463745442D413632322D343644302D413938332D3331353338454246344243312F617474726962757465732E62696E504B0304140006080800CC70623B08DA0BD19000000041010000360000006662782F39464131463745442D413632322D343644302D413938
310
332D3331353338454246344243312F6469726563746F72792E786D6C858F410AC3201045AF22B36F53E9A60B35CBEEBAE80D244E44489C6234F4F835464A48035D0DF398FF9F8AF63D0E6CC63039F212F8F9020C7D47C6792B21C5FE7403D62A1188E2E60C98D7234A5830286103A55745067B9D86B8A3CF9C7F90C11DE607
310
FB144396D7B6A82D282E9A152AD114D5EF2CB866EEE831B8EEA07A7BB5A8D7D61A2BAAEB7FD5F70921FF497D00504B0304140006080800CC70623B0D6EF93BFE000000A00100003B0000006662782F39464131463745442D413632322D343644302D413938332D3331353338454246344243312F7265736F75726365732F63
310
6F72652E786D6C8D50596E833010BD0A9ADFCA60B334011947A8694ED00B586642AC041B79A97AFC9A40A5F6AF3F33A3B7689E1E3F7DCD8FEC139DD7D6F4C0720A191A65476DA61E62B892236427C19DB5E1970C322367EC618541F0C9D9B8EC90B226A009093576C41D94DE63804C3DD2D18357379C652E63480A7FCF17A9
310
EE72C29CE5894E3AC17D702940B63D59270887DE46A7D0F36263058F518FBB468FE9A7BE6A7420864373B8D4873369AA8691FA421B3294352543C5CAF65C0F6FEF43CB8BD52C78D0F34F46E550061C419494B6843142CB0F5677F4B52BEB177AEC28E5C52AFF638ACBF84F53D42654E51E77B379102C05791282176B5F693D
310
CB4C7BED567C03504B010214000A0000080000CC70623B3DEE336E79000000790000001B00000000000000000000000000000000006175746F6465736B2D64657369676E2D7061636B6167652E786D6C504B01021400140006080800CC70623BD486FD9CA0000000F40000001300000000000000000000000000B20000005B
310
436F6E74656E745F54797065735D2E786D6C504B01021400140006080800CC70623B1EC5D7A3EB0000007C010000080000000000000000000000000083010000636F72652E786D6C504B01021400140006080800CC70623B55019EA25F0000007C000000070000000000000000000000000094020000636E782E786D6C504B
310
01021400140006080800CC70623B8C9102E971010000D40300000C00000000000000000000000000180300006662782F636F72652E786D6C504B01021400140006080800CC70623BFFEA85907E0000009D0000000B00000000000000000000000000B30400006662782F636E782E786D6C504B01021400140006080800CC70
310
623B4FEEA4082C0100001202000031000000000000000000000000005A0500006662782F39464131463745442D413632322D343644302D413938332D3331353338454246344243312F636F72652E786D6C504B01021400140006080800CC70623BAD7543B64E010000330300003000000000000000000000000000D5060000
310
6662782F39464131463745442D413632322D343644302D413938332D3331353338454246344243312F636E782E786D6C504B01021400140006080800CC70623B16AB87BA640500003C1000003400000000000000000000000000710800006662782F39464131463745442D413632322D343644302D413938332D3331353338
310
454246344243312F6F626A656374732E786D6C504B01021400140006080000CC70623B0000000000000000000000003500000000000000000000000000270E00006662782F39464131463745442D413632322D343644302D413938332D3331353338454246344243312F76657274696365732E62696E504B01021400140006
310
080800CC70623BF270F133060000000400000036000000000000000000000000007A0E00006662782F39464131463745442D413632322D343644302D413938332D3331353338454246344243312F747269616E676C65732E62696E504B01021400140006080000CC70623B0000000000000000000000003700000000000000
310
000000000000D40E00006662782F39464131463745442D413632322D343644302D413938332D3331353338454246344243312F617474726962757465732E62696E504B01021400140006080800CC70623B08DA0BD190000000410100003600000000000000000000000000290F00006662782F39464131463745442D413632
310
322D343644302D413938332D3331353338454246344243312F6469726563746F72792E786D6C504B01021400140006080800CC70623B0D6EF93BFE000000A00100003B000000000000000000000000000D1000006662782F39464131463745442D413632322D343644302D413938332D3331353338454246344243312F7265
310
736F75726365732F636F72652E786D6C504B0506000000000E000E0080040000641100000000
  0
XRECORD
  5
175
102
{ACAD_REACTORS
330
173
102
}
330
173
100
AcDbXrecord
280
     1
270
     1
271
     1
  0
XRECORD
  5
174
102
{ACAD_REACTORS
330
173
102
}
330
173
100
AcDbXrecord
280
     1
270
     1
271
     1
  0
XRECORD
  5
1FB
102
{ACAD_REACTORS
330
173
102
}
330
173
100
AcDbXrecord
280
     1
 70
     0
 90
1673772943
  1
ECE7A1D2-D628-4531-984C-D00F80459256
310
504B03040A0000080000CC70623B3DEE336E79000000790000001B0000006175746F6465736B2D64657369676E2D7061636B6167652E786D6C3C3F786D6C2076657273696F6E3D22312E302220656E636F64696E673D227574662D3822203F3E3C666F726D6174733E3C666F726D61743E687474703A2F2F736368656D612E
310
6175746F6465736B2E636F6D2F64657369676E2D7061636B6167652F323030393C2F666F726D61743E3C2F666F726D6174733E504B0304140006080800CC70623BD486FD9CA0000000F4000000130000005B436F6E74656E745F54797065735D2E786D6C7D8EC10E82300C865F65E91D8A1E8C310C0EEA1BF002731658846E
310
D98AC1B77784ABF1D8FE5FBFBF75BBCE937A534CCEB38643598122B6FEE978D0B0485F9C41B54DDD7D022595594E1A469170414C76A4D9A4D207E29CF43ECE46F218070CC6BECC4078ACAA135ACF422C856C0E68EA1BF5669944DDD7BCDE7B1F8E415D77AECB980613C2E4AC91FC167A2B244592486606FC29C8FD7F045B9A
310
EF7053A7E60B504B0304140006080800CC70623BD9DDAED0EC0000007C01000008000000636F72652E786D6C8D90416EC3201045AF82665B61836D9CD8C2444DD39CA01740405C94182C03558F5F9C3852BBEB6A467FFE9B197D7EF89E6EE8CB2CC17A37002D0820E394D7D68D03A478C17B4007C117EFE32F1B20272733C0
310
2A83E0E3E2D3BC49CABB685CCCAAF3DA6CA20CC14440EA969B0182FA34932C648AD911AEC52CD5558EA6A0CF2EC329598D1E47ACCEFBECC59A050463A7EA5833865FEBDD0E37353BE3EE8DBDE3F6786A48D375FBF6CC78B9C282473B3DEFABC5C86834888A900E538A49F5419B9EB47DD5BC907D4F082F57FB1F28CDFA9F50
310
B22ED6D5F6EE030B20687EE43E10BC5CB3C8E51E54AE6B6EE207504B0304140006080800CC70623B55019EA25F0000007C00000007000000636E782E786D6C4DCB3B0E80201045D1AD90E915ED2CF8AC45050C11660C8261F98AB1B07AC9C97D42D718D865D3E909258CFD00CCE24AC6E326A164D74DC0B4128928FF326038
310
472BA13128B1252AC747C6BAB984FC68F0B87FE8960A5C09FE86CFB69FBA01504B0304140006080800CC70623BA24EB22D72010000D40300000C0000006662782F636F72652E786D6CC5535B6E833010BC8AE5DF0A6C5E49888CA3A6694ED00B38E05014B091B1518EDFE511A5A9D228FD2A1F60CDEC7A67C6986DCE4D8D7A
310
69BA4AAB0C073EC548AA5C17952A33ECECD15B61B4E1CC686DBF9561A44423333CC098B3D268D7CE50AE9595CA02AA74216750749DB418E5352C32DCE59FB211BE70162ABA93DF8AFC244AE9073ED050C759670D0840D390E18DF9F1706664C23973AE2A66B62A605A75ACA4C13C4976E1364A12EF355A2EBD384AF65EFA96
310
BC7B8BED2EA6719AAE16FB8491A199335B351775B991C2CA02F390D2D40B028F861F41BCA68B7518BFD0D59A524686F29B26D7164F36B94AD9289CE54E6D1DE6010819891F6E21228B3AD1831EC219194284CF98F06DD01008846CC5A1BEF83801D4CBDC6A1303536877A57A513B0953A94FC707FDBE6064EA84A9E3E6E0FA
310
EE8CF0E9198F7784A316AA0413C2C2F2E0ECA0934D1AE6D05A69BCDE9E91D2A611F573361E38FC1375157F5752AE6B6DFE4B11990F88CCBF0719EE23FF02504B0304140006080800CC70623B408A7D3B7C0000009D0000000B0000006662782F636E782E786D6C4DCCD10A83201886E15B91FFDC552A92A0064DBC8F581632
310
D3703A76F9ABD1C18E3E78F878E5F0D9027ABBFCF2292AE86E2D20171F69F6715550CB827B40839639A5F2770314A7CD293819B45C73AAFB45B35BA61ACAA1C1C7E7855C58C15BC331339661262CC762340413D68D77DA5B42298546CBE6573AF60CEB2F504B0304140006080800CC70623B449FB9BD290100001202000031
310
0000006662782F36394639363044362D344446342D343946362D394244322D3234314243333846323333332F636F72652E786D6C8D515B6EC32010BC0AE22B55850D98B871848994463E412FE002495162B07854397EA176A4F62F3F2C9A9D991D587EB84F37F0AD7D30CEF6905418026DA553C65E7A98E219ED203808EE9D
310
8B7F6810D871D23D2C3014FCE25D9A57483A1BB58D19B54EE9151C43D0110279CB971E06F9A5A7B11A53CC8C70ADE6515EC78BAE4895DB992778883E0700CB907242D17643D7E2538BD869608875438BBAE38922CAC8F1BDD90DB4691A5E2F42C153326A951B95E398B3D1FE599322163C9AE9115F7A3D46ADA0A018778810
310
84E907617BDCEE297BC5BB3DC6BC2EF47FA234AB2745C9D8D8D035EE220B50105E2F0DC1954B9FB747187D9F9D8FA0CCDB042D5FA0C015C65B42DF78BD10F3F3B363CB56C7109DCFDFBBB97E662ED92EB62D13BC2E1BCAE5777DB9966D8A1F504B0304140006080800CC70623BAD7543B64E01000033030000300000006662
310
782F36394639363044362D344446342D343946362D394244322D3234314243333846323333332F636E782E786D6CD593CD6EC32010845F0571AD6CE3D48AD20813A9873E410FBD12D82434182C7EAAE6EDBB2424CD25871E7B41D6EC30B3FA84F9E67BB2E40B4234DE8DB46F1925E094D7C6ED479AD3AE5951B2113C789FEE
310
6C943839C1488B4C05DF079FE72A69D8C96C13AAD6B8631503449F83828872B949AC57D26200B826A308D316B4064D6E46FCDA41C05550DC9E483A00797BFD207EFB092A45DE9514C1BBD22178396BD39D891265658C238DEA00936C654E5E433CB65A26D9F6EDB5EBC14EBF49A45CB856E66048291F6939A9A81BB5C89177
310
38143CA680F4AA299D66A042CEB3354A2684DC9D8D178FE0D9B8B41CAAD720F880EE7EF93C0C18769E099ECC04D5A102C8049A8A05632F4DDF376CF1DE0F6BB65C2F8627B65A33C6BB62177CEBBDAD973006829F89F22E814B54F4BC2BE347F8AA8F681390B50FA73F804400B5F542E796F19FF974E7F78DB802FE05E20750
310
4B0304140006080800CC70623B8D05915C650500003B100000340000006662782F36394639363044362D344446342D343946362D394244322D3234314243333846323333332F6F626A656374732E786D6CAD575B6FA33814FE2B887D06429276DA1565D4266D158D3A339A6846FB502932E050B66023DB74D2FDF5FB190C01
310
9276B2973C046C8ECFF53B17071F77456EBD502133CEAE6CDF9DD81665314F32965ED995DA3A17B6F5310C04E7AA47665B8C14F4CAD6DB7618A48257A5D94AE89654B91AEDDEDDFC61C998326A5B714EA4BCB265FC440BE2924AF184CA6737218AB8E976E7FA6E4338649B0A523E8D98964450A6A029F619B8588D52FE7039
310
B1BD30F0F4F730D0FF866AF6369557DB33949F31A9088B0F848DD8CCFCF9F2767A76E99CCDE733677E3EF59D9BBB9BA5E37F984D16E78BC5E5F5ED25044B25C0C96822E8D60EEFE11B91C581D77CEA34368A1F5329E68CD1B8B61F16D63A1B8E092D294B10C78C4A48EB593D192E7DED9BDEE7995E1B91FDEDD3ACEA9FE831
310
6A756F9F7D4D79F4274C90A7A04248AA51D5F8C718DAE06FB2F75AC4796EBE65D22A88A22223B995679120E2D50E41AA49C260C046A35368846B0BECD0DFF3EBEB8AD4F835768F69B9ADF25C43D30E6B646F807FAA64AD59F61715C7A54127C4AACA98BA3006A9D792DAE165E0D59B61A01FB3A9F9D838D2DAE62445C86166
310
F37564E842E7DE6A69879FEEA2DD5AE7E371E1A5E025154AC307D06A03D73EB5978C58FFA4C8E9033066E0F3BD53BEC1F39F91BE7B55103791EDE6BBB991A2046172CB4581D8B893FA674DDA17A77B3B7C413D1B511FD2743BFF8A38F03A658705E3ADF8015C3A3417FF3D7E439FF591DA0B5F18BC20C1B8981957AE6392A3
310
F43C640C01D1A0B4728E2DD4F26DB4B3C3152A252A3B4E913CEC1C72F012782FF88EFF8637AA552DBEF76408E8A8DE9E50F9E1CB3A2DA0DB1B6039A893B56063DC5B3E3FFB5F72E67AB9FEB4AEC496C4F4C1149625DD662C53E89D7BF0F6151A046260D1337DFDC94502430F83B0EE07A130A224BCAD7DAE1D9FB6CD422FF6
310
920702629C4BB9AE79C12F243C6432A6794E18E5552BA56B431AAB5D91317302B2B071E86C3A42B1A02F999E24061403B5D0EB639195DA655DD3EBEAB4FB862DDF579F014AD0E73C22F99E28DA57FB98E75C6CA2D74D53086D600F4786E0FE3144B771A8A7B900F03594DB8A633CBC49B2EDB69228BB479CF863B5E807AAAB
310
23872F6DFEB4129B949CA33823F58830E86D65621E10047D9DB34D862E8EAC3C2ABC2F7B2C40D67CDFE01F5545B92105AF983AC54D93D69E56FB8E797F88913F898A9FEC705D3F9D1B54EC8426FB500D40A03BD0119B06E1B95DDC7EB8F6975367793EBD70E66733DFB9BC982F9CE564727731999F5D4ECFCE3B8D6A4DC2A0
310
6D50FD148437D110834A64C6CDDF57FBACB5C307A2A477DFE4939736CFEF2B175371E0E10CF0DD1D5C15654E0BCA14D1E87DD02FF93782A162C0A3D95F1524A52770F972BF1EE9809D13CE7DD599467F8ECE9ADD85CE85A34CD45355448C64F9E8A031DC2D596ACC6E5DD93D9B82DE2EF5CAF81363A8E47996A0DE24564A79
310
4115AACE09C55E14540231FDA13C319787134EBF34E3A022514E5B4D9E0826E25C02D5805B15ABE1BEF51B26383D445DD9E875EE33FE4C22DA16427D65A3BCA92CA6D28DD01DF5DC53330704308475351050232CCD31583787BA75774AFB06E5070DD0C8EF484E19968C5D83BA5B90B244D31E54D55A372320FE4786B7EA58
310
44E135AA5467CB7EA333A61683CC6A8C3257034C10CF46F40EF9F5BE59BE5BD30C3C72D235E95D10345C1D45445A5F0BB47E46A5EBE5570F9380B5FA629579952296A773720405982B9DE04011506178964401AA8BDF1FBF0A8EAB6861DD6580C0E38217056766716DAEB2D6FA0917D3E4116581EADB879C4E7CFFB11EFACD
310
3D641311495D92C8676CB409A72D18610D803CE8A626049E8EC1887CB5B44CC39883690DDA8399B4B9855B481E7D71D4A9D22F96E5BB73BF5793020C02137BF837504B0304140006080000CC70623B000000000000000000000000350000006662782F36394639363044362D344446342D343946362D394244322D32343142
310
43333846323333332F76657274696365732E62696E504B0304140006080800CC70623BF270F1330600000004000000360000006662782F36394639363044362D344446342D343946362D394244322D3234314243333846323333332F747269616E676C65732E62696E636660600000504B0304140006080000CC70623B0000
310
00000000000000000000370000006662782F36394639363044362D344446342D343946362D394244322D3234314243333846323333332F617474726962757465732E62696E504B0304140006080800CC70623B08DA0BD19000000041010000360000006662782F36394639363044362D344446342D343946362D394244322D
310
3234314243333846323333332F6469726563746F72792E786D6C858F410AC3201045AF22B36F53E9A60B35CBEEBAE80D244E44489C6234F4F835464A48035D0DF398FF9F8AF63D0E6CC63039F212F8F9020C7D47C6792B21C5FE7403D62A1188E2E60C98D7234A5830286103A55745067B9D86B8A3CF9C7F90C11DE607FB14
310
4396D7B6A82D282E9A152AD114D5EF2CB866EEE831B8EEA07A7BB5A8D7D61A2BAAEB7FD5F70921FF497D00504B0304140006080800CC70623BCA768048FE000000A00100003B0000006662782F36394639363044362D344446342D343946362D394244322D3234314243333846323333332F7265736F75726365732F636F72
310
652E786D6C8D50596E833010BD0A9ADFCA60D600328E9AA639412F609909B1126CE4A5EAF16B0295DABFFECC8CDEA2797AECF8353F924FB44E193D409E5248504B332A3D0D10FC95B4901C39B3C6F85F3248B49871801506CE266BC2B243D2688FDA47549B11775038871E12F988C7004EDE7016A9083E2ADC3D5D84BC8B09
310
D33C8D74D471E6BC8D0192EDC93A815B742658898E651BCB59086ADC356A8C3FD555A1055ED7E7E254D615792D0F075295F585746FF53B694EE78A565DD736979A65AB9933AFE69F8CD2A2F038022F28ED489E135A7CE4554F9BBEA85E68DB53CAB255FEC71496F19FA6A0B42F8B3DEE6673C0F318E4497096AD7DC5F52C33
310
EEB55BFE0D504B010214000A0000080000CC70623B3DEE336E79000000790000001B00000000000000000000000000000000006175746F6465736B2D64657369676E2D7061636B6167652E786D6C504B01021400140006080800CC70623BD486FD9CA0000000F40000001300000000000000000000000000B20000005B436F
310
6E74656E745F54797065735D2E786D6C504B01021400140006080800CC70623BD9DDAED0EC0000007C010000080000000000000000000000000083010000636F72652E786D6C504B01021400140006080800CC70623B55019EA25F0000007C000000070000000000000000000000000095020000636E782E786D6C504B0102
310
1400140006080800CC70623BA24EB22D72010000D40300000C00000000000000000000000000190300006662782F636F72652E786D6C504B01021400140006080800CC70623B408A7D3B7C0000009D0000000B00000000000000000000000000B50400006662782F636E782E786D6C504B01021400140006080800CC70623B
310
449FB9BD290100001202000031000000000000000000000000005A0500006662782F36394639363044362D344446342D343946362D394244322D3234314243333846323333332F636F72652E786D6C504B01021400140006080800CC70623BAD7543B64E010000330300003000000000000000000000000000D20600006662
310
782F36394639363044362D344446342D343946362D394244322D3234314243333846323333332F636E782E786D6C504B01021400140006080800CC70623B8D05915C650500003B10000034000000000000000000000000006E0800006662782F36394639363044362D344446342D343946362D394244322D32343142433338
310
46323333332F6F626A656374732E786D6C504B01021400140006080000CC70623B0000000000000000000000003500000000000000000000000000250E00006662782F36394639363044362D344446342D343946362D394244322D3234314243333846323333332F76657274696365732E62696E504B010214001400060808
310
00CC70623BF270F13306000000040000003600000000000000000000000000780E00006662782F36394639363044362D344446342D343946362D394244322D3234314243333846323333332F747269616E676C65732E62696E504B01021400140006080000CC70623B00000000000000000000000037000000000000000000
310
00000000D20E00006662782F36394639363044362D344446342D343946362D394244322D3234314243333846323333332F617474726962757465732E62696E504B01021400140006080800CC70623B08DA0BD190000000410100003600000000000000000000000000270F00006662782F36394639363044362D344446342D
310
343946362D394244322D3234314243333846323333332F6469726563746F72792E786D6C504B01021400140006080800CC70623BCA768048FE000000A00100003B000000000000000000000000000B1000006662782F36394639363044362D344446342D343946362D394244322D3234314243333846323333332F7265736F
310
75726365732F636F72652E786D6C504B0506000000000E000E0080040000621100000000
  0
XRECORD
  5
176
102
{ACAD_REACTORS
330
173
102
}
330
173
100
AcDbXrecord
280
     1
270
     1
271
     1
  0
XRECORD
  5
177
102
{ACAD_REACTORS
330
173
102
}
330
173
100
AcDbXrecord
280
     1
270
     1
271
     1
  0
XRECORD
  5
18A9
102
{ACAD_REACTORS
330
18A8
102
}
330
18A8
100
AcDbXrecord
280
     1
102
DISPLAYNAME
  1
Metric50
102
FLAGS
 90
        0
  0
CELLSTYLEMAP
  5
189E
102
{ACAD_REACTORS
330
162
102
}
330
162
100
AcDbCellStyleMap
 90
        3
300
CELLSTYLE
  1
TABLEFORMAT_BEGIN
 90
        5
170
     1
 91
        0
 92
    32768
 62
   257
 93
        1
300
CONTENTFORMAT
  1
CONTENTFORMAT_BEGIN
 90
        0
 91
        0
 92
      512
 93
        0
300

 40
0.0
140
1.0
 94
        5
 62
     0
340
11
144
6.0
309
CONTENTFORMAT_END
171
     1
301
MARGIN
  1
CELLMARGIN_BEGIN
 40
1.5
 40
1.5
 40
1.5
 40
1.5
 40
4.5
 40
4.5
309
CELLMARGIN_END
 94
        6
 95
        1
302
GRIDFORMAT
  1
GRIDFORMAT_BEGIN
 90
        0
 91
        1
 62
     0
 92
       -2
340
14
 93
        0
 40
1.125
309
GRIDFORMAT_END
 95
        2
302
GRIDFORMAT
  1
GRIDFORMAT_BEGIN
 90
        0
 91
        1
 62
     0
 92
       -2
340
14
 93
        0
 40
1.125
309
GRIDFORMAT_END
 95
        4
302
GRIDFORMAT
  1
GRIDFORMAT_BEGIN
 90
        0
 91
        1
 62
     0
 92
       -2
340
14
 93
        0
 40
1.125
309
GRIDFORMAT_END
 95
        8
302
GRIDFORMAT
  1
GRIDFORMAT_BEGIN
 90
        0
 91
        1
 62
     0
 92
       -2
340
14
 93
        0
 40
1.125
309
GRIDFORMAT_END
 95
       16
302
GRIDFORMAT
  1
GRIDFORMAT_BEGIN
 90
        0
 91
        1
 62
     0
 92
       -2
340
14
 93
        0
 40
1.125
309
GRIDFORMAT_END
 95
       32
302
GRIDFORMAT
  1
GRIDFORMAT_BEGIN
 90
        0
 91
        1
 62
     0
 92
       -2
340
14
 93
        0
 40
1.125
309
GRIDFORMAT_END
309
TABLEFORMAT_END
  1
CELLSTYLE_BEGIN
 90
        1
 91
        1
300
_TITLE
309
CELLSTYLE_END
300
CELLSTYLE
  1
TABLEFORMAT_BEGIN
 90
        5
170
     1
 91
        0
 92
        0
 62
   257
 93
        1
300
CONTENTFORMAT
  1
CONTENTFORMAT_BEGIN
 90
        0
 91
        0
 92
      512
 93
        0
300

 40
0.0
140
1.0
 94
        5
 62
     0
340
11
144
4.5
309
CONTENTFORMAT_END
171
     1
301
MARGIN
  1
CELLMARGIN_BEGIN
 40
1.5
 40
1.5
 40
1.5
 40
1.5
 40
4.5
 40
4.5
309
CELLMARGIN_END
 94
        6
 95
        1
302
GRIDFORMAT
  1
GRIDFORMAT_BEGIN
 90
        0
 91
        1
 62
     0
 92
       -2
340
14
 93
        0
 40
1.125
309
GRIDFORMAT_END
 95
        2
302
GRIDFORMAT
  1
GRIDFORMAT_BEGIN
 90
        0
 91
        1
 62
     0
 92
       -2
340
14
 93
        0
 40
1.125
309
GRIDFORMAT_END
 95
        4
302
GRIDFORMAT
  1
GRIDFORMAT_BEGIN
 90
        0
 91
        1
 62
     0
 92
       -2
340
14
 93
        0
 40
1.125
309
GRIDFORMAT_END
 95
        8
302
GRIDFORMAT
  1
GRIDFORMAT_BEGIN
 90
        0
 91
        1
 62
     0
 92
       -2
340
14
 93
        0
 40
1.125
309
GRIDFORMAT_END
 95
       16
302
GRIDFORMAT
  1
GRIDFORMAT_BEGIN
 90
        0
 91
        1
 62
     0
 92
       -2
340
14
 93
        0
 40
1.125
309
GRIDFORMAT_END
 95
       32
302
GRIDFORMAT
  1
GRIDFORMAT_BEGIN
 90
        0
 91
        1
 62
     0
 92
       -2
340
14
 93
        0
 40
1.125
309
GRIDFORMAT_END
309
TABLEFORMAT_END
  1
CELLSTYLE_BEGIN
 90
        2
 91
        1
300
_HEADER
309
CELLSTYLE_END
300
CELLSTYLE
  1
TABLEFORMAT_BEGIN
 90
        5
170
     1
 91
        0
 92
        0
 62
   257
 93
        1
300
CONTENTFORMAT
  1
CONTENTFORMAT_BEGIN
 90
        0
 91
        0
 92
      512
 93
        0
300

 40
0.0
140
1.0
 94
        2
 62
     0
340
11
144
4.5
309
CONTENTFORMAT_END
171
     1
301
MARGIN
  1
CELLMARGIN_BEGIN
 40
1.5
 40
1.5
 40
1.5
 40
1.5
 40
4.5
 40
4.5
309
CELLMARGIN_END
 94
        6
 95
        1
302
GRIDFORMAT
  1
GRIDFORMAT_BEGIN
 90
        0
 91
        1
 62
     0
 92
       -2
340
14
 93
        0
 40
1.125
309
GRIDFORMAT_END
 95
        2
302
GRIDFORMAT
  1
GRIDFORMAT_BEGIN
 90
        0
 91
        1
 62
     0
 92
       -2
340
14
 93
        0
 40
1.125
309
GRIDFORMAT_END
 95
        4
302
GRIDFORMAT
  1
GRIDFORMAT_BEGIN
 90
        0
 91
        1
 62
     0
 92
       -2
340
14
 93
        0
 40
1.125
309
GRIDFORMAT_END
 95
        8
302
GRIDFORMAT
  1
GRIDFORMAT_BEGIN
 90
        0
 91
        1
 62
     0
 92
       -2
340
14
 93
        0
 40
1.125
309
GRIDFORMAT_END
 95
       16
302
GRIDFORMAT
  1
GRIDFORMAT_BEGIN
 90
        0
 91
        1
 62
     0
 92
       -2
340
14
 93
        0
 40
1.125
309
GRIDFORMAT_END
 95
       32
302
GRIDFORMAT
  1
GRIDFORMAT_BEGIN
 90
        0
 91
        1
 62
     0
 92
       -2
340
14
 93
        0
 40
1.125
309
GRIDFORMAT_END
309
TABLEFORMAT_END
  1
CELLSTYLE_BEGIN
 90
        3
 91
        2
300
_DATA
309
CELLSTYLE_END
  0
ENDSEC
  0
SECTION
  2
ACDSDATA
 70
     2
 71
     8
  0
ACDSSCHEMA
 90
        0
  1
AcDb_Thumbnail_Schema
  2
AcDbDs::ID
280
    10
 91
        8
  2
Thumbnail_Data
280
    15
 91
        0
101
ACDSRECORD
 95
        0
 90
        1
  2
AcDbDs::TreatedAsObjectData
280
     1
291
     1
101
ACDSRECORD
 95
        0
 90
        2
  2
AcDbDs::Legacy
280
     1
291
     1
101
ACDSRECORD
  1
AcDbDs::ID
 90
        3
  2
AcDs:Indexable
280
     1
291
     1
101
ACDSRECORD
  1
AcDbDs::ID
 90
        4
  2
AcDbDs::HandleAttribute
280
     7
282
     1
  0
ACDSSCHEMA
 90
        1
  1
AcDbDs::TreatedAsObjectDataSchema
  2
AcDbDs::TreatedAsObjectData
280
     1
 91
        0
  0
ACDSSCHEMA
 90
        2
  1
AcDbDs::LegacySchema
  2
AcDbDs::Legacy
280
     1
 91
        0
  0
ACDSSCHEMA
 90
        3
  1
AcDbDs::IndexedPropertySchema
  2
AcDs:Indexable
280
     1
 91
        0
  0
ACDSSCHEMA
 90
        4
  1
AcDbDs::HandleAttributeSchema
  2
AcDbDs::HandleAttribute
280
     7
 91
        1
284
     1
  0
ACDSRECORD
 90
        0
  2
AcDbDs::ID
280
    10
320
22
  2
Thumbnail_Data
280
    15
 94
     1581
310
89504E470D0A1A0A0000000D4948445200000100000000670803000000D82A6C0200000300504C5445000000FFFFFF0000000000000000000000000000000000000000000000000000000000330000660000990000CC0000FF0033000033330033660033990033CC0033FF0066000066330066660066990066CC0066FF0099
310
000099330099660099990099CC0099FF00CC0000CC3300CC6600CC9900CCCC00CCFF00FF0000FF3300FF6600FF9900FFCC00FFFF3300003300333300663300993300CC3300FF3333003333333333663333993333CC3333FF3366003366333366663366993366CC3366FF3399003399333399663399993399CC3399FF33CC00
310
33CC3333CC6633CC9933CCCC33CCFF33FF0033FF3333FF6633FF9933FFCC33FFFF6600006600336600666600996600CC6600FF6633006633336633666633996633CC6633FF6666006666336666666666996666CC6666FF6699006699336699666699996699CC6699FF66CC0066CC3366CC6666CC9966CCCC66CCFF66FF0066
310
FF3366FF6666FF9966FFCC66FFFF9900009900339900669900999900CC9900FF9933009933339933669933999933CC9933FF9966009966339966669966999966CC9966FF9999009999339999669999999999CC9999FF99CC0099CC3399CC6699CC9999CCCC99CCFF99FF0099FF3399FF6699FF9999FFCC99FFFFCC0000CC00
310
33CC0066CC0099CC00CCCC00FFCC3300CC3333CC3366CC3399CC33CCCC33FFCC6600CC6633CC6666CC6699CC66CCCC66FFCC9900CC9933CC9966CC9999CC99CCCC99FFCCCC00CCCC33CCCC66CCCC99CCCCCCCCCCFFCCFF00CCFF33CCFF66CCFF99CCFFCCCCFFFFFF0000FF0033FF0066FF0099FF00CCFF00FFFF3300FF3333
310
FF3366FF3399FF33CCFF33FFFF6600FF6633FF6666FF6699FF66CCFF66FFFF9900FF9933FF9966FF9999FF99CCFF99FFFFCC00FFCC33FFCC66FFCC99FFCCCCFFCCFFFFFF00FFFF33FFFF66FFFF99FFFFCCFFFFFF0000000D0D0D1A1A1A2828283535354343435050505D5D5D6B6B6B787878868686939393A1A1A1AEAEAEBB
310
BBBBC9C9C9D6D6D6E4E4E4F1F1F1FFFFFF0000000000000000000000000000000000000000000000000000000000003AE5ACE9000002914944415478DAED9CCD7583400C84550805F8423DEE960B6DB8040EBEE81E30B02C8B20109618493307E2F7E238AB8F91F6D71041100441D05FC55FD7B70190F30600000000000000
310
000000C0FAEFAB8B5B09004A005C3674550280A759835B00010465E5A0AB065C30895305807B070C2F1C019832C0A90386704329F4E600EEDF35FCC8DC6445358099964B688E007C0CC0E416000F1472B75C1700FEFF06DC662E3019C0650AC4F1E71D10EA00F08E1220FCC500E02405250E78C706C89A074A1CF04E0C10BA
310
43270E681606885D403E00CC0D1057433723C1D4008EC6018D6C00CAB054786300AF48CBF86700C82480C801D54A0270E8128DA740B566806840E400806C809323232D29B0618065FC47082802B06500FE73284A003C5AF123BA0A00A24EC1642F305ABDEB15DBCB46FC46010CE1BD0400C904212E09760004151F350FC100
310
718DB006609CFDD008A0E14632C0E1A87401E86E69F1B9B36DFC4D9653B1F707D0B53C0068AFC5FC4E17C27E91A5815059969D03A253020140D1BF2AC8348036E8B253D52A2E82ADC2CBBA7E3EEDA6C00ED5B5E51AE01CC0D8F492CB75D575B94FDA0070D812A7CDB8EC01884C3BAC76790510E5C0477D32B8A9018C22B8F3
310
5B65A601D0340624715DE8E206DC0E80B043601F000B535D760480C5A98EFDADB169112479DBE975401B00BCEC0E4BE7E3925322A78E0828580F488A2049BB61CE00CC08907500D22DE6D99EB0ED4352F2DBF27D6B420D8034606700E8B2E75D680170F2208C050017B555130002008700080000000000E0C8E71D3D330107
310
C00100600BC02F9FBB58588003000000D00D02C037FFBFFBA7CAEE6DD0AE964ECF5961A99F9332FE6600363A70A63D158D8917000258F12334A4C02E008903024F5D0EF0570320088220CDFA0173CDA33B2A2831FE0000000049454E44AE426082579ED896AA062F5D42F4FAC5200910CB62177014455114457DA43F1AB58B
310
3BC7FE96030000000049454E44AE4260821E3CB5AE20C23F4377F0E718024251144545EA1FCA0788749C530EE00000000049454E44AE426082
  0
ACDSRECORD
 90
        0
  2
AcDbDs::ID
280
    10
320
D3
  2
Thumbnail_Data
280
    15
 94
     1974
310
89504E470D0A1A0A0000000D4948445200000100000000B5080300000087DCD12600000300504C5445FFFFFFFFFFFFFFFFFF0000000000000000000000000000000000000000000000000000330000660000990000CC0000FF0033000033330033660033990033CC0033FF0066000066330066660066990066CC0066FF0099
310
000099330099660099990099CC0099FF00CC0000CC3300CC6600CC9900CCCC00CCFF00FF0000FF3300FF6600FF9900FFCC00FFFF3300003300333300663300993300CC3300FF3333003333333333663333993333CC3333FF3366003366333366663366993366CC3366FF3399003399333399663399993399CC3399FF33CC00
310
33CC3333CC6633CC9933CCCC33CCFF33FF0033FF3333FF6633FF9933FFCC33FFFF6600006600336600666600996600CC6600FF6633006633336633666633996633CC6633FF6666006666336666666666996666CC6666FF6699006699336699666699996699CC6699FF66CC0066CC3366CC6666CC9966CCCC66CCFF66FF0066
310
FF3366FF6666FF9966FFCC66FFFF9900009900339900669900999900CC9900FF9933009933339933669933999933CC9933FF9966009966339966669966999966CC9966FF9999009999339999669999999999CC9999FF99CC0099CC3399CC6699CC9999CCCC99CCFF99FF0099FF3399FF6699FF9999FFCC99FFFFCC0000CC00
310
33CC0066CC0099CC00CCCC00FFCC3300CC3333CC3366CC3399CC33CCCC33FFCC6600CC6633CC6666CC6699CC66CCCC66FFCC9900CC9933CC9966CC9999CC99CCCC99FFCCCC00CCCC33CCCC66CCCC99CCCCCCCCCCFFCCFF00CCFF33CCFF66CCFF99CCFFCCCCFFFFFF0000FF0033FF0066FF0099FF00CCFF00FFFF3300FF3333
310
FF3366FF3399FF33CCFF33FFFF6600FF6633FF6666FF6699FF66CCFF66FFFF9900FF9933FF9966FF9999FF99CCFF99FFFFCC00FFCC33FFCC66FFCC99FFCCCCFFCCFFFFFF00FFFF33FFFF66FFFF99FFFFCCFFFFFF0000000D0D0D1A1A1A2828283535354343435050505D5D5D6B6B6B787878868686939393A1A1A1AEAEAEBB
310
BBBBC9C9C9D6D6D6E4E4E4F1F1F1FFFFFF000000000000000000000000000000000000000000000000000000000000AD4AB4E4000004694944415478DAED9C49B2A4300C4475FF63E6B2A30FD1D151C560E3A900799092C52FFEA200BF4AA725615BF0C7F50181B83E08800008800008603BF773640038FAD9098000088000
310
08800008800008800008800008800008E02180D345400004F0F9DC6A4F7109CA05804209CE05005C183804E0D90316F0C19E003EFAFF08639AEEA00A0041EBF771602A3FE805009B00FE7FE0AB01EB0090BE8F1F0FC002EDEF150A238C09B77337008E784876278CFA883D00510F38C584E2430108AF066F1EB04A4CDCC303
310
10E6C66138249B2F18AE071CE7A9192A0705FB0070C98DCF23835500084FF3F7370C00138783EA00CA02F00160E6F6EB17453302F85ADF275CDA3E0D02C8B73F4C0CCC0E830847C353EB6507B0FF35082029806F51F05418B4DB05920E389719AAD704930288BF709449BA4B41B524561740FCDEB0BF19E802D823FCE49583
310
B69F33037B00D2ED8F1818EC0252164018178D68BD3E80C6F6CBB8D745DA26986F756E81926900E9F6DB5540A300CC0642ED02300DA0E680811748F7AE301C00D256B81E80DCA2CCE6F69F2F21EB01C00B004C7AC09DF6778D085F07800040B3035E7324170090B542230A6815001219A20700285BE1368F247A9DB8108027
310
ED3FFA0254B3A51900A0942169CF375736C1FB02D8C7C3E31DD2BA001A1D704886D4A50B64529F9A00AE7EA05031D505D0B2814B8B00A2D2E92A0076339354F547DAB2E5D80B1704806CCAD4D401F6F505B25C17B8C6B81182360114B3CFC789730F056452E3966429FD24D1EC82B901945DB0EA80C83CF36B91913680F329
310
0A85AF9F04B092075C0784EBA4D11B02581540647BA9F64B75A1CDAA00B642D7909DF2BA0248EED42727ED579EA2AB0014004856015500E8EE00AA0082CB21BD9A2EBC6F54EFE9D17E952E90480791461417009129A2AC042098FC1FAC901AB95DE818139C68BF5402200002E8030004905A15E707002E135E7C01401CF036
310
BCCA4331989CFCBD40A2C0872004B4AE80C40DC32AA575133C563F07FB42F81C05C0388000088000AEEB639BAA7F23E74B6B02484541B509D3E6014C27014500A896356720A00700E21B005A0ABB13109809C09015135A0050B84CC3DAB9E50194B70DC92E1F85180100B903C08E0754D7C14C44400B003C03407914A810C0
310
EAFB079C7FFC5600A3860051DD51B27899D4F45119D0FE610052D381056200006AC9D02CE35F9F8A904C4F40B71E501D2F3A2F14EE0CA046608A6DE607029001EB443B036820203ACB206602B0BF3C93290F5D0093F4F38100446627A00E60407E331F80990F0220000220803701080110000110000110000110C0DBCFA935
310
959000D8055601A03499960056010002000A3C1AC8A50D800A580D40F8EFEF5FA4029655C0DDD25B658EC2E25DA065BF420E83160148FB42299AA0955098051102200002E808C0CF710BC0ED2CF6954C3839152BF3CD5FF63069EE02BF037838545F4B013D00E47FFC5F948517FCE4D89BE5F46F66F396F0F62DECB5013C52
310
40F8039FB29B08C0750793C70A78D703DE01D0B50B781F055C1E044000044000DE01383FE4AFF3E31F72C1C37A6D0D0F140000000049454E44AE42608249454E44AE426082
  0
ENDSEC
  0
EOF
