  0
SECTION
  2
HEADER
  9
$ACADVER
  1
AC1024
  9
$ACADMAINTVER
 70
   225
  9
$DWGCODEPAGE
  3
ANSI_932
  9
$LASTSAVEDBY
  1
takanashi
  9
$INSBASE
 10
0.0
 20
0.0
 30
0.0
  9
$EXTMIN
 10
-0.0256200963685842
 20
-0.0181170681469212
 30
-0.0000000000000653
  9
$EXTMAX
 10
840.0256425892131
 20
594.0181329738002
 30
0.0000000009638153
  9
$LIMMIN
 10
0.0
 20
0.0
  9
$LIMMAX
 10
12.0
 20
9.0
  9
$ORTHOMODE
 70
     0
  9
$REGENMODE
 70
     1
  9
$FILLMODE
 70
     1
  9
$QTEXTMODE
 70
     0
  9
$MIRRTEXT
 70
     0
  9
$LTSCALE
 40
0.2
  9
$ATTMODE
 70
     1
  9
$TEXTSIZE
 40
0.2
  9
$TRACEWID
 40
0.05
  9
$TEXTSTYLE
  7
Standard
  9
$CLAYER
  8
0
  9
$CELTYPE
  6
ByLayer
  9
$CECOLOR
 62
   256
  9
$CELTSCALE
 40
0.2
  9
$DISPSILH
 70
     0
  9
$DIMSCALE
 40
1.0
  9
$DIMASZ
 40
0.18
  9
$DIMEXO
 40
0.0625
  9
$DIMDLI
 40
0.38
  9
$DIMRND
 40
0.0
  9
$DIMDLE
 40
0.0
  9
$DIMEXE
 40
0.18
  9
$DIMTP
 40
0.0
  9
$DIMTM
 40
0.0
  9
$DIMTXT
 40
0.18
  9
$DIMCEN
 40
0.09
  9
$DIMTSZ
 40
0.0
  9
$DIMTOL
 70
     0
  9
$DIMLIM
 70
     0
  9
$DIMTIH
 70
     1
  9
$DIMTOH
 70
     1
  9
$DIMSE1
 70
     0
  9
$DIMSE2
 70
     0
  9
$DIMTAD
 70
     0
  9
$DIMZIN
 70
     0
  9
$DIMBLK
  1

  9
$DIMASO
 70
     1
  9
$DIMSHO
 70
     1
  9
$DIMPOST
  1

  9
$DIMAPOST
  1

  9
$DIMALT
 70
     0
  9
$DIMALTD
 70
     2
  9
$DIMALTF
 40
25.4
  9
$DIMLFAC
 40
1.0
  9
$DIMTOFL
 70
     0
  9
$DIMTVP
 40
0.0
  9
$DIMTIX
 70
     0
  9
$DIMSOXD
 70
     0
  9
$DIMSAH
 70
     0
  9
$DIMBLK1
  1

  9
$DIMBLK2
  1

  9
$DIMSTYLE
  2
Standard
  9
$DIMCLRD
 70
     0
  9
$DIMCLRE
 70
     0
  9
$DIMCLRT
 70
     0
  9
$DIMTFAC
 40
1.0
  9
$DIMGAP
 40
0.09
  9
$DIMJUST
 70
     0
  9
$DIMSD1
 70
     0
  9
$DIMSD2
 70
     0
  9
$DIMTOLJ
 70
     1
  9
$DIMTZIN
 70
     0
  9
$DIMALTZ
 70
     0
  9
$DIMALTTZ
 70
     0
  9
$DIMUPT
 70
     0
  9
$DIMDEC
 70
     4
  9
$DIMTDEC
 70
     4
  9
$DIMALTU
 70
     2
  9
$DIMALTTD
 70
     2
  9
$DIMTXSTY
  7
Standard
  9
$DIMAUNIT
 70
     0
  9
$DIMADEC
 70
     0
  9
$DIMALTRND
 40
0.0
  9
$DIMAZIN
 70
     0
  9
$DIMDSEP
 70
    46
  9
$DIMATFIT
 70
     3
  9
$DIMFRAC
 70
     0
  9
$DIMLDRBLK
  1

  9
$DIMLUNIT
 70
     2
  9
$DIMLWD
 70
    -2
  9
$DIMLWE
 70
    -2
  9
$DIMTMOVE
 70
     0
  9
$DIMFXL
 40
1.0
  9
$DIMFXLON
 70
     0
  9
$DIMJOGANG
 40
0.7853981633974483
  9
$DIMTFILL
 70
     0
  9
$DIMTFILLCLR
 70
     0
  9
$DIMARCSYM
 70
     0
  9
$DIMLTYPE
  6

  9
$DIMLTEX1
  6

  9
$DIMLTEX2
  6

  9
$DIMTXTDIRECTION
 70
     0
  9
$LUNITS
 70
     2
  9
$LUPREC
 70
     4
  9
$SKETCHINC
 40
0.1
  9
$FILLETRAD
 40
0.0
  9
$AUNITS
 70
     0
  9
$AUPREC
 70
     0
  9
$MENU
  1
.
  9
$ELEVATION
 40
0.0
  9
$PELEVATION
 40
0.0
  9
$THICKNESS
 40
0.0
  9
$LIMCHECK
 70
     0
  9
$CHAMFERA
 40
0.0
  9
$CHAMFERB
 40
0.0
  9
$CHAMFERC
 40
0.0
  9
$CHAMFERD
 40
0.0
  9
$SKPOLY
 70
     0
  9
$TDCREATE
 40
2457851.604201389
  9
$TDUCREATE
 40
2457851.229208322
  9
$TDUPDATE
 40
2459719.414560185
  9
$TDUUPDATE
 40
2459719.039560186
  9
$TDINDWG
 40
0.2818334375
  9
$TDUSRTIMER
 40
0.2818334375
  9
$USRTIMER
 70
     1
  9
$ANGBASE
 50
0.0
  9
$ANGDIR
 70
     0
  9
$PDMODE
 70
     0
  9
$PDSIZE
 40
0.0
  9
$PLINEWID
 40
0.0
  9
$SPLFRAME
 70
     0
  9
$SPLINETYPE
 70
     6
  9
$SPLINESEGS
 70
     8
  9
$HANDSEED
  5
2CA4
  9
$SURFTAB1
 70
     6
  9
$SURFTAB2
 70
     6
  9
$SURFTYPE
 70
     6
  9
$SURFU
 70
     6
  9
$SURFV
 70
     6
  9
$UCSBASE
  2

  9
$UCSNAME
  2

  9
$UCSORG
 10
0.0
 20
0.0
 30
0.0
  9
$UCSXDIR
 10
1.0
 20
0.0
 30
0.0
  9
$UCSYDIR
 10
0.0
 20
1.0
 30
0.0
  9
$UCSORTHOREF
  2

  9
$UCSORTHOVIEW
 70
     0
  9
$UCSORGTOP
 10
0.0
 20
0.0
 30
0.0
  9
$UCSORGBOTTOM
 10
0.0
 20
0.0
 30
0.0
  9
$UCSORGLEFT
 10
0.0
 20
0.0
 30
0.0
  9
$UCSORGRIGHT
 10
0.0
 20
0.0
 30
0.0
  9
$UCSORGFRONT
 10
0.0
 20
0.0
 30
0.0
  9
$UCSORGBACK
 10
0.0
 20
0.0
 30
0.0
  9
$PUCSBASE
  2

  9
$PUCSNAME
  2

  9
$PUCSORG
 10
0.0
 20
0.0
 30
0.0
  9
$PUCSXDIR
 10
1.0
 20
0.0
 30
0.0
  9
$PUCSYDIR
 10
0.0
 20
1.0
 30
0.0
  9
$PUCSORTHOREF
  2

  9
$PUCSORTHOVIEW
 70
     0
  9
$PUCSORGTOP
 10
0.0
 20
0.0
 30
0.0
  9
$PUCSORGBOTTOM
 10
0.0
 20
0.0
 30
0.0
  9
$PUCSORGLEFT
 10
0.0
 20
0.0
 30
0.0
  9
$PUCSORGRIGHT
 10
0.0
 20
0.0
 30
0.0
  9
$PUCSORGFRONT
 10
0.0
 20
0.0
 30
0.0
  9
$PUCSORGBACK
 10
0.0
 20
0.0
 30
0.0
  9
$USERI1
 70
     0
  9
$USERI2
 70
     0
  9
$USERI3
 70
     0
  9
$USERI4
 70
     0
  9
$USERI5
 70
     0
  9
$USERR1
 40
0.0
  9
$USERR2
 40
0.0
  9
$USERR3
 40
0.0
  9
$USERR4
 40
0.0
  9
$USERR5
 40
0.0
  9
$WORLDVIEW
 70
     1
  9
$SHADEDGE
 70
     3
  9
$SHADEDIF
 70
    70
  9
$TILEMODE
 70
     1
  9
$MAXACTVP
 70
    64
  9
$PINSBASE
 10
0.0
 20
0.0
 30
0.0
  9
$PLIMCHECK
 70
     0
  9
$PEXTMIN
 10
0.0
 20
0.0
 30
0.0
  9
$PEXTMAX
 10
0.0
 20
0.0
 30
0.0
  9
$PLIMMIN
 10
0.0
 20
0.0
  9
$PLIMMAX
 10
12.0
 20
9.0
  9
$UNITMODE
 70
     0
  9
$VISRETAIN
 70
     1
  9
$PLINEGEN
 70
     0
  9
$PSLTSCALE
 70
     1
  9
$TREEDEPTH
 70
  3020
  9
$CMLSTYLE
  2
Standard
  9
$CMLJUST
 70
     0
  9
$CMLSCALE
 40
1.0
  9
$PROXYGRAPHICS
 70
     1
  9
$MEASUREMENT
 70
     1
  9
$CELWEIGHT
370
    -1
  9
$ENDCAPS
280
     0
  9
$JOINSTYLE
280
     0
  9
$LWDISPLAY
290
     0
  9
$INSUNITS
 70
     1
  9
$HYPERLINKBASE
  1

  9
$STYLESHEET
  1
monochrome.ctb
  9
$XEDIT
290
     1
  9
$CEPSNTYPE
380
     0
  9
$PSTYLEMODE
290
     1
  9
$FINGERPRINTGUID
  2
{58EAA5C2-BAFF-40C1-AB26-89F8DD057B12}
  9
$VERSIONGUID
  2
{0D3299E6-7DF1-A146-9CCC-55FED50CF990}
  9
$EXTNAMES
290
     1
  9
$PSVPSCALE
 40
0.0
  9
$OLESTARTUP
290
     0
  9
$SORTENTS
280
   127
  9
$INDEXCTL
280
     0
  9
$HIDETEXT
280
     1
  9
$XCLIPFRAME
280
     2
  9
$HALOGAP
280
     0
  9
$OBSCOLOR
 70
   257
  9
$OBSLTYPE
280
     0
  9
$INTERSECTIONDISPLAY
280
     0
  9
$INTERSECTIONCOLOR
 70
   257
  9
$DIMASSOC
280
     2
  9
$PROJECTNAME
  1

  9
$CAMERADISPLAY
290
     0
  9
$LENSLENGTH
 40
50.0
  9
$CAMERAHEIGHT
 40
0.0
  9
$STEPSPERSEC
 40
2.0
  9
$STEPSIZE
 40
6.0
  9
$3DDWFPREC
 40
2.0
  9
$PSOLWIDTH
 40
0.25
  9
$PSOLHEIGHT
 40
4.0
  9
$LOFTANG1
 40
1.570796326794896
  9
$LOFTANG2
 40
1.570796326794896
  9
$LOFTMAG1
 40
0.0
  9
$LOFTMAG2
 40
0.0
  9
$LOFTPARAM
 70
     7
  9
$LOFTNORMALS
280
     1
  9
$LATITUDE
 40
37.795
  9
$LONGITUDE
 40
-122.394
  9
$NORTHDIRECTION
 40
0.0
  9
$TIMEZONE
 70
 -8000
  9
$LIGHTGLYPHDISPLAY
280
     1
  9
$TILEMODELIGHTSYNCH
280
     1
  9
$CMATERIAL
347
96
  9
$SOLIDHIST
280
     0
  9
$SHOWHIST
280
     1
  9
$DWFFRAME
280
     2
  9
$DGNFRAME
280
     0
  9
$REALWORLDSCALE
290
     1
  9
$INTERFERECOLOR
 62
     1
  9
$INTERFEREOBJVS
345
A3
  9
$INTERFEREVPVS
346
A0
  9
$CSHADOW
280
     0
  9
$SHADOWPLANELOCATION
 40
0.0
  0
ENDSEC
  0
SECTION
  2
CLASSES
  0
CLASS
  1
ACDBDICTIONARYWDFLT
  2
AcDbDictionaryWithDefault
  3
ObjectDBX Classes
 90
        0
 91
        1
280
     0
281
     0
  0
CLASS
  1
DICTIONARYVAR
  2
AcDbDictionaryVar
  3
ObjectDBX Classes
 90
        0
 91
       11
280
     0
281
     0
  0
CLASS
  1
TABLESTYLE
  2
AcDbTableStyle
  3
ObjectDBX Classes
 90
     4095
 91
        1
280
     0
281
     0
  0
CLASS
  1
MATERIAL
  2
AcDbMaterial
  3
ObjectDBX Classes
 90
     1153
 91
        3
280
     0
281
     0
  0
CLASS
  1
VISUALSTYLE
  2
AcDbVisualStyle
  3
ObjectDBX Classes
 90
     4095
 91
       24
280
     0
281
     0
  0
CLASS
  1
SCALE
  2
AcDbScale
  3
ObjectDBX Classes
 90
     1153
 91
       33
280
     0
281
     0
  0
CLASS
  1
MLEADERSTYLE
  2
AcDbMLeaderStyle
  3
ACDB_MLEADERSTYLE_CLASS
 90
     4095
 91
        1
280
     0
281
     0
  0
CLASS
  1
CELLSTYLEMAP
  2
AcDbCellStyleMap
  3
ObjectDBX Classes
 90
     1152
 91
        3
280
     0
281
     0
  0
CLASS
  1
EXACXREFPANELOBJECT
  2
ExAcXREFPanelObject
  3
EXAC_ESW
 90
     1025
 91
        0
280
     0
281
     0
  0
CLASS
  1
NPOCOLLECTION
  2
AcDbImpNonPersistentObjectsCollection
  3
ObjectDBX Classes
 90
     1153
 91
        0
280
     0
281
     0
  0
CLASS
  1
LAYER_INDEX
  2
AcDbLayerIndex
  3
ObjectDBX Classes
 90
        0
 91
        0
280
     0
281
     0
  0
CLASS
  1
SPATIAL_INDEX
  2
AcDbSpatialIndex
  3
ObjectDBX Classes
 90
        0
 91
        0
280
     0
281
     0
  0
CLASS
  1
IDBUFFER
  2
AcDbIdBuffer
  3
ObjectDBX Classes
 90
        0
 91
        0
280
     0
281
     0
  0
CLASS
  1
ACDBSECTIONVIEWSTYLE
  2
AcDbSectionViewStyle
  3
ObjectDBX Classes
 90
     1025
 91
        2
280
     0
281
     0
  0
CLASS
  1
ACDBDETAILVIEWSTYLE
  2
AcDbDetailViewStyle
  3
ObjectDBX Classes
 90
     1025
 91
        2
280
     0
281
     0
  0
CLASS
  1
SORTENTSTABLE
  2
AcDbSortentsTable
  3
ObjectDBX Classes
 90
        0
 91
        4
280
     0
281
     0
  0
ENDSEC
  0
SECTION
  2
TABLES
  0
TABLE
  2
VPORT
  5
8
102
{ACAD_XDICTIONARY
360
4F8
102
}
330
0
100
AcDbSymbolTable
 70
     1
  0
VPORT
  5
94
330
8
100
AcDbSymbolTableRecord
100
AcDbViewportTableRecord
  2
*Active
 70
     0
 10
0.0
 20
0.0
 11
1.0
 21
1.0
 12
420.0000112464222
 22
297.0000079528266
 13
0.0
 23
0.0
 14
0.5
 24
0.5
 15
0.5
 25
0.5
 16
0.0
 26
0.0
 36
1.0
 17
0.0
 27
0.0
 37
0.0
 40
598.204925480838
 41
1.879391100702576
 42
50.0
 43
0.0
 44
0.0
 50
0.0
 51
0.0
 71
     0
 72
  1000
 73
     1
 74
     3
 75
     0
 76
     0
 77
     0
 78
     0
281
     0
 65
     1
110
0.0
120
0.0
130
0.0
111
1.0
121
0.0
131
0.0
112
0.0
122
1.0
132
0.0
 79
     0
146
0.0
348
9F
 60
     3
 61
     5
292
     1
282
     1
141
0.0
142
0.0
 63
   250
421
  3355443
1001
ACAD_NAV_VCDISPLAY
1070
     3
  0
ENDTAB
  0
TABLE
  2
LTYPE
  5
5
330
0
100
AcDbSymbolTable
 70
     5
  0
LTYPE
  5
14
330
5
100
AcDbSymbolTableRecord
100
AcDbLinetypeTableRecord
  2
ByBlock
 70
     0
  3

 72
    65
 73
     0
 40
0.0
  0
LTYPE
  5
15
330
5
100
AcDbSymbolTableRecord
100
AcDbLinetypeTableRecord
  2
ByLayer
 70
     0
  3

 72
    65
 73
     0
 40
0.0
  0
LTYPE
  5
16
330
5
100
AcDbSymbolTableRecord
100
AcDbLinetypeTableRecord
  2
Continuous
 70
     0
  3
Solid line
 72
    65
 73
     0
 40
0.0
  0
LTYPE
  5
2E0
330
5
100
AcDbSymbolTableRecord
100
AcDbLinetypeTableRecord
  2
Amconstr
 70
     0
  3
_______________________
 72
    65
 73
     2
 40
9999.0
 49
9999.0
 74
     0
 49
0.0
 74
     0
  0
LTYPE
  5
2E1
330
5
100
AcDbSymbolTableRecord
100
AcDbLinetypeTableRecord
  2
DASHED2
 70
     0
  3
Dashed (.5x) _ _ _ _ _ _ _ _ _ _ _ _ _ _ _ _ _
 72
    65
 73
     2
 40
9.524999999999996
 49
6.349999999999997
 74
     0
 49
-3.174999999999998
 74
     0
  0
ENDTAB
  0
TABLE
  2
LAYER
  5
2
102
{ACAD_XDICTIONARY
360
18E
102
}
330
0
100
AcDbSymbolTable
 70
    12
  0
LAYER
  5
10
102
{ACAD_XDICTIONARY
360
E6
102
}
330
2
100
AcDbSymbolTableRecord
100
AcDbLayerTableRecord
  2
0
 70
     0
 62
     7
  6
Continuous
370
    -3
390
F
347
98
  0
LAYER
  5
2E2
102
{ACAD_XDICTIONARY
360
2E3
102
}
330
2
100
AcDbSymbolTableRecord
100
AcDbLayerTableRecord
  2
YAKUMONO
 70
     0
 62
     3
  6
Continuous
370
    -3
390
F
347
98
  0
LAYER
  5
2E4
102
{ACAD_XDICTIONARY
360
2E5
102
}
330
2
100
AcDbSymbolTableRecord
100
AcDbLayerTableRecord
  2
SEIHIN
 70
     0
 62
     4
  6
Continuous
370
    -3
390
F
347
98
  0
LAYER
  5
2E6
102
{ACAD_XDICTIONARY
360
2E7
102
}
330
2
100
AcDbSymbolTableRecord
100
AcDbLayerTableRecord
  2
MOJI
 70
     0
 62
     7
  6
Continuous
370
    -3
390
F
347
98
  0
LAYER
  5
2E8
102
{ACAD_XDICTIONARY
360
2E9
102
}
330
2
100
AcDbSymbolTableRecord
100
AcDbLayerTableRecord
  2
BISUKUGI
 70
     0
 62
     6
  6
Continuous
370
    -3
390
F
347
98
  0
LAYER
  5
2EA
102
{ACAD_XDICTIONARY
360
2EB
102
}
330
2
100
AcDbSymbolTableRecord
100
AcDbLayerTableRecord
  2
WAKU
 70
     0
 62
     7
  6
Continuous
370
    -3
390
F
347
98
  0
LAYER
  5
2EC
102
{ACAD_XDICTIONARY
360
2ED
102
}
330
2
100
AcDbSymbolTableRecord
100
AcDbLayerTableRecord
  2
KUTAI
 70
     0
 62
     2
  6
Continuous
370
    -3
390
2FD
347
98
  0
LAYER
  5
2EE
102
{ACAD_XDICTIONARY
360
2EF
102
}
330
2
100
AcDbSymbolTableRecord
100
AcDbLayerTableRecord
  2
BOUSUISI
 70
     0
 62
     1
  6
DASHED2
370
    -3
390
2FD
347
98
  0
LAYER
  5
2F0
102
{ACAD_XDICTIONARY
360
2F1
102
}
330
2
100
AcDbSymbolTableRecord
100
AcDbLayerTableRecord
  2
DOUBUTI
 70
     0
 62
     7
  6
Continuous
370
    -3
390
2FD
347
98
  0
LAYER
  5
2F2
102
{ACAD_XDICTIONARY
360
2F3
102
}
330
2
100
AcDbSymbolTableRecord
100
AcDbLayerTableRecord
  2
AM_CL
 70
     0
 62
    -1
  6
Amconstr
290
     0
370
    25
390
F
347
98
  0
LAYER
  5
2F4
102
{ACAD_XDICTIONARY
360
2F5
102
}
330
2
100
AcDbSymbolTableRecord
100
AcDbLayerTableRecord
  2
SI-RINGU
 70
     0
 62
     9
  6
Continuous
370
    -3
390
2FD
347
98
  0
LAYER
  5
682
102
{ACAD_XDICTIONARY
360
683
102
}
330
2
100
AcDbSymbolTableRecord
100
AcDbLayerTableRecord
  2
YAKUMONO2
 70
     0
 62
    32
  6
Continuous
370
    -3
390
2FD
347
98
  0
ENDTAB
  0
TABLE
  2
STYLE
  5
3
330
0
100
AcDbSymbolTable
 70
     3
  0
STYLE
  5
11
330
3
100
AcDbSymbolTableRecord
100
AcDbTextStyleTableRecord
  2
Standard
 70
     0
 40
0.0
 41
1.0
 50
0.0
 71
     0
 42
0.2
  3

  4

1001
ACAD
1000
MS Gothic
1071
    32817
  0
STYLE
  5
2F6
330
3
100
AcDbSymbolTableRecord
100
AcDbTextStyleTableRecord
  2
CAD-DL
 70
     0
 40
5.0
 41
1.0
 50
0.0
 71
     0
 42
2.5
  3

  4

1001
ACAD
1000
MS Gothic
1071
    32817
  0
STYLE
  5
2F7
330
3
100
AcDbSymbolTableRecord
100
AcDbTextStyleTableRecord
  2
WAKU
 70
     0
 40
5.0
 41
1.0
 50
0.0
 71
     0
 42
5.0
  3

  4

1001
ACAD
1000
MS Gothic
1071
    32817
  0
ENDTAB
  0
TABLE
  2
VIEW
  5
6
330
0
100
AcDbSymbolTable
 70
     6
  0
ENDTAB
  0
TABLE
  2
UCS
  5
7
330
0
100
AcDbSymbolTable
 70
     0
  0
ENDTAB
  0
TABLE
  2
APPID
  5
9
330
0
100
AcDbSymbolTable
 70
    13
  0
APPID
  5
12
330
9
100
AcDbSymbolTableRecord
100
AcDbRegAppTableRecord
  2
ACAD
 70
     0
  0
APPID
  5
DD
330
9
100
AcDbSymbolTableRecord
100
AcDbRegAppTableRecord
  2
AcadAnnoPO
 70
     0
  0
APPID
  5
DE
330
9
100
AcDbSymbolTableRecord
100
AcDbRegAppTableRecord
  2
AcadAnnotative
 70
     0
  0
APPID
  5
DF
330
9
100
AcDbSymbolTableRecord
100
AcDbRegAppTableRecord
  2
ACAD_DSTYLE_DIMJAG
 70
     0
  0
APPID
  5
E0
330
9
100
AcDbSymbolTableRecord
100
AcDbRegAppTableRecord
  2
ACAD_DSTYLE_DIMTALN
 70
     0
  0
APPID
  5
107
330
9
100
AcDbSymbolTableRecord
100
AcDbRegAppTableRecord
  2
ACAD_MLEADERVER
 70
     0
  0
APPID
  5
1A6
330
9
100
AcDbSymbolTableRecord
100
AcDbRegAppTableRecord
  2
ACAD_NAV_VCDISPLAY
 70
     0
  0
APPID
  5
2FA
330
9
100
AcDbSymbolTableRecord
100
AcDbRegAppTableRecord
  2
ACAD_PSEXT
 70
     0
  0
APPID
  5
2FB
330
9
100
AcDbSymbolTableRecord
100
AcDbRegAppTableRecord
  2
GradientColor1ACI
 70
     0
  0
APPID
  5
2FC
330
9
100
AcDbSymbolTableRecord
100
AcDbRegAppTableRecord
  2
GradientColor2ACI
 70
     0
  0
APPID
  5
456
330
9
100
AcDbSymbolTableRecord
100
AcDbRegAppTableRecord
  2
ACAD_EXEMPT_FROM_CAD_STANDARDS
 70
     0
  0
APPID
  5
68A
330
9
100
AcDbSymbolTableRecord
100
AcDbRegAppTableRecord
  2
ACAECLAYERSTANDARD
 70
     0
  0
APPID
  5
68B
330
9
100
AcDbSymbolTableRecord
100
AcDbRegAppTableRecord
  2
AcCmTransparency
 70
     0
  0
ENDTAB
  0
TABLE
  2
DIMSTYLE
  5
A
330
0
100
AcDbSymbolTable
 70
     4
100
AcDbDimStyleTable
 71
     1
340
27
  0
DIMSTYLE
105
27
330
A
100
AcDbSymbolTableRecord
100
AcDbDimStyleTableRecord
  2
Standard
 70
     0
340
11
  0
DIMSTYLE
105
200D
330
A
100
AcDbSymbolTableRecord
100
AcDbDimStyleTableRecord
  2
Annotative
 70
     0
 40
0.0
340
11
1001
AcadAnnotative
1000
AnnotativeData
1002
{
1070
     1
1070
     1
1002
}
1001
ACAD_DSTYLE_DIMJAG
1070
   388
1040
1.5
1001
ACAD_DSTYLE_DIMTALN
1070
   392
1070
     0
  0
DIMSTYLE
105
297B
330
A
100
AcDbSymbolTableRecord
100
AcDbDimStyleTableRecord
  2
ISO-25
 70
     0
 41
2.5
 42
0.625
 43
3.75
 44
1.25
 73
     0
 74
     0
 77
     1
 78
     8
140
2.5
141
2.5
143
0.03937007874016
147
0.625
171
     3
172
     1
271
     2
272
     2
274
     3
278
    44
283
     0
284
     8
340
11
  0
ENDTAB
  0
TABLE
  2
BLOCK_RECORD
  5
1
330
0
100
AcDbSymbolTable
 70
     6
  0
BLOCK_RECORD
  5
1F
102
{ACAD_XDICTIONARY
360
15D
102
}
330
1
100
AcDbSymbolTableRecord
100
AcDbBlockTableRecord
  2
*Model_Space
340
22
 70
     0
280
     1
281
     0
  0
BLOCK_RECORD
  5
58
330
1
100
AcDbSymbolTableRecord
100
AcDbBlockTableRecord
  2
*Paper_Space
340
59
 70
     0
280
     1
281
     0
  0
BLOCK_RECORD
  5
5D
330
1
100
AcDbSymbolTableRecord
100
AcDbBlockTableRecord
  2
*Paper_Space0
340
5E
 70
     0
280
     1
281
     0
  0
BLOCK_RECORD
  5
1F85
102
{ACAD_XDICTIONARY
360
1F86
102
}
330
1
100
AcDbSymbolTableRecord
100
AcDbBlockTableRecord
  2
00シンビス45
340
0
310
2800000020000000200000000100080000000000000400000000000000000000000000000000000000000000000080000080000000808000800000008000800080800000C0C0C000C0DCC000F0CAA6000020400000206000002080000020A0000020C0000020E00000400000004020000040400000406000004080000040A0
310
000040C0000040E00000600000006020000060400000606000006080000060A0000060C0000060E00000800000008020000080400000806000008080000080A0000080C0000080E00000A0000000A0200000A0400000A0600000A0800000A0A00000A0C00000A0E00000C0000000C0200000C0400000C0600000C0800000C0
310
A00000C0C00000C0E00000E0000000E0200000E0400000E0600000E0800000E0A00000E0C00000E0E00040000000400020004000400040006000400080004000A0004000C0004000E00040200000402020004020400040206000402080004020A0004020C0004020E000404000004040200040404000404060004040800040
310
40A0004040C0004040E00040600000406020004060400040606000406080004060A0004060C0004060E00040800000408020004080400040806000408080004080A0004080C0004080E00040A0000040A0200040A0400040A0600040A0800040A0A00040A0C00040A0E00040C0000040C0200040C0400040C0600040C08000
310
40C0A00040C0C00040C0E00040E0000040E0200040E0400040E0600040E0800040E0A00040E0C00040E0E00080000000800020008000400080006000800080008000A0008000C0008000E00080200000802020008020400080206000802080008020A0008020C0008020E00080400000804020008040400080406000804080
310
008040A0008040C0008040E00080600000806020008060400080606000806080008060A0008060C0008060E00080800000808020008080400080806000808080008080A0008080C0008080E00080A0000080A0200080A0400080A0600080A0800080A0A00080A0C00080A0E00080C0000080C0200080C0400080C0600080C0
310
800080C0A00080C0C00080C0E00080E0000080E0200080E0400080E0600080E0800080E0A00080E0C00080E0E000C0000000C0002000C0004000C0006000C0008000C000A000C000C000C000E000C0200000C0202000C0204000C0206000C0208000C020A000C020C000C020E000C0400000C0402000C0404000C0406000C0
310
408000C040A000C040C000C040E000C0600000C0602000C0604000C0606000C0608000C060A000C060C000C060E000C0800000C0802000C0804000C0806000C0808000C080A000C080C000C080E000C0A00000C0A02000C0A04000C0A06000C0A08000C0A0A000C0A0C000C0A0E000C0C00000C0C02000C0C04000C0C06000
310
C0C08000C0C0A000F0FBFF00A4A0A000808080000000FF0000FF000000FFFF00FF000000FF00FF00FFFF0000FFFFFF0000000000000000000000000000000000000000000000000000000000000000000000000000000000000000000000000000000000000000000000000000000000000000000000000000000000000000
310
00000000000000000000000000000000000000000000000000000000000000000000000000000000000000000000000000000000000000000000000000000000000000000000000000000000000000000000000000000000000000000000000000000000000000000000000000000000000000000000000000000000000000
310
00000000000000000000000000000000000000000000000000000000000000000000000000000000000000000000000000000000000000000000000000000000000000000000000000000000000000000000000000000000000000000000000000000000000000000000000000000000000000000000000000000000000000
310
0000000000000000000000000000000000000000000000000000000000000000000000000000000000000000000000000000000000FDFD000000000000000000000000000000000000000000000000000000000000FDFD000000000000000000000000000000000000000000000000000000000000FDFDFDFDFDFD00FD00FD
310
00FD00FD00FD00FD00FD00FD00FD00FD0000000000FDFDFD00FDFDFDFDFDFDFDFDFDFDFDFDFDFDFDFDFDFDFDFDFDFDFDFDFDFD0000FDFDFD00FDFDFDFDFDFDFDFDFDFDFDFDFDFDFDFDFDFDFDFDFDFDFDFDFD00000000FDFDFDFD00FD00FD00FD00FD00FD00FD00FD00FD00FD00FD00FD000000000000FDFD00000000000000
310
0000000000000000000000000000000000000000000000FDFD000000000000000000000000000000000000000000000000000000000000000000000000000000000000000000000000000000000000000000000000000000000000000000000000000000000000000000000000000000000000000000000000000000000000
310
00000000000000000000000000000000000000000000000000000000000000000000000000000000000000000000000000000000000000000000000000000000000000000000000000000000000000000000000000000000000000000000000000000000000000000000000000000000000000000000000000000000000000
310
00000000000000000000000000000000000000000000000000000000000000000000000000000000000000000000000000000000000000000000000000000000000000000000000000000000000000000000000000000000000000000000000000000000000000000000000000000000000000000000000000000000000000
310
0000000000000000000000000000000000000000000000000000000000000000000000000000000000000000000000000000000000000000
 70
     4
280
     1
281
     0
  0
BLOCK_RECORD
  5
2935
330
1
100
AcDbSymbolTableRecord
100
AcDbBlockTableRecord
  2
平頭L25
340
0
102
{BLKREFS
331
2982
331
2984
102
}
 70
     4
280
     1
281
     0
  0
BLOCK_RECORD
  5
2985
330
1
100
AcDbSymbolTableRecord
100
AcDbBlockTableRecord
  2
平頭L45
340
0
102
{BLKREFS
331
2A07
102
}
 70
     4
280
     1
281
     0
  0
ENDTAB
  0
ENDSEC
  0
SECTION
  2
BLOCKS
  0
BLOCK
  5
20
330
1F
100
AcDbEntity
  8
0
100
AcDbBlockBegin
  2
*Model_Space
 70
     0
 10
0.0
 20
0.0
 30
0.0
  3
*Model_Space
  1

  0
ENDBLK
  5
21
330
1F
100
AcDbEntity
  8
0
100
AcDbBlockEnd
  0
BLOCK
  5
5A
330
58
100
AcDbEntity
 67
     1
  8
0
100
AcDbBlockBegin
  2
*Paper_Space
 70
     0
 10
0.0
 20
0.0
 30
0.0
  3
*Paper_Space
  1

  0
ENDBLK
  5
5B
330
58
100
AcDbEntity
 67
     1
  8
0
100
AcDbBlockEnd
  0
BLOCK
  5
5F
330
5D
100
AcDbEntity
 67
     1
  8
0
100
AcDbBlockBegin
  2
*Paper_Space0
 70
     0
 10
0.0
 20
0.0
 30
0.0
  3
*Paper_Space0
  1

  0
ENDBLK
  5
60
330
5D
100
AcDbEntity
 67
     1
  8
0
100
AcDbBlockEnd
  0
BLOCK
  5
1F88
330
1F85
100
AcDbEntity
  8
0
100
AcDbBlockBegin
  2
00シンビス45
 70
     0
 10
0.0
 20
0.0
 30
0.0
  3
00シンビス45
  1

  0
LINE
  5
1F89
330
1F85
100
AcDbEntity
  8
BISUKUGI
100
AcDbLine
 10
16.57531914894935
 20
2.399999999997815
 30
0.0
 11
16.01885176184441
 21
1.436170212764409
 31
0.0
  0
LINE
  5
1F8A
330
1F85
100
AcDbEntity
  8
BISUKUGI
100
AcDbLine
 10
16.01885176184441
 20
1.436170212764409
 30
0.0
 11
17.14696495718817
 21
-1.436170212764409
 31
0.0
  0
LINE
  5
1F8B
330
1F85
100
AcDbEntity
  8
BISUKUGI
100
AcDbLine
 10
17.14696495718817
 20
-1.436170212764409
 30
0.0
 11
17.69872340427537
 21
-2.400000000001453
 31
0.0
  0
LINE
  5
1F8C
330
1F85
100
AcDbEntity
  8
BISUKUGI
100
AcDbLine
 10
17.12707759603654
 20
1.436170212764409
 30
0.0
 11
16.57531914894935
 21
2.399999999997815
 31
0.0
  0
LINE
  5
1F8D
330
1F85
100
AcDbEntity
  8
BISUKUGI
100
AcDbLine
 10
16.57531914894935
 20
2.399999999997815
 30
0.0
 11
17.69872340427537
 21
-2.400000000001453
 31
0.0
  0
LINE
  5
1F8E
330
1F85
100
AcDbEntity
  8
BISUKUGI
100
AcDbLine
 10
17.14696495719545
 20
-1.436170212764409
 30
0.0
 11
14.93859504671127
 21
-1.436170212764409
 31
0.0
  0
LINE
  5
1F8F
330
1F85
100
AcDbEntity
  8
BISUKUGI
100
AcDbLine
 10
16.01885176184441
 20
1.436170212764409
 30
0.0
 11
13.81048185135296
 21
1.436170212764409
 31
0.0
  0
LINE
  5
1F90
330
1F85
100
AcDbEntity
  8
BISUKUGI
100
AcDbLine
 10
13.25872340427304
 20
2.399999999997815
 30
0.0
 11
14.38212765959178
 21
-2.400000000001453
 31
0.0
  0
LINE
  5
1F91
330
1F85
100
AcDbEntity
  8
BISUKUGI
100
AcDbLine
 10
14.93859504671127
 20
-1.436170212764409
 30
0.0
 11
13.81048185135296
 21
1.436170212764409
 31
0.0
  0
LINE
  5
1F92
330
1F85
100
AcDbEntity
  8
BISUKUGI
100
AcDbLine
 10
14.38212765959178
 20
-2.400000000001453
 30
0.0
 11
14.93859504671127
 21
-1.436170212764409
 31
0.0
  0
LINE
  5
1F93
330
1F85
100
AcDbEntity
  8
BISUKUGI
100
AcDbLine
 10
13.83036921251187
 20
-1.436170212764409
 30
0.0
 11
14.38212765959178
 21
-2.400000000001453
 31
0.0
  0
LINE
  5
1F94
330
1F85
100
AcDbEntity
  8
BISUKUGI
100
AcDbLine
 10
19.89191489363293
 20
2.399999999997815
 30
0.0
 11
19.33544750652072
 21
1.436170212764409
 31
0.0
  0
LINE
  5
1F95
330
1F85
100
AcDbEntity
  8
BISUKUGI
100
AcDbLine
 10
19.33544750652072
 20
1.436170212764409
 30
0.0
 11
20.46356070187176
 21
-1.436170212764409
 31
0.0
  0
LINE
  5
1F96
330
1F85
100
AcDbEntity
  8
BISUKUGI
100
AcDbLine
 10
20.46356070187176
 20
-1.436170212764409
 30
0.0
 11
21.01531914895168
 21
-2.400000000001453
 31
0.0
  0
LINE
  5
1F97
330
1F85
100
AcDbEntity
  8
BISUKUGI
100
AcDbLine
 10
21.01531914895168
 20
-2.400000000001453
 30
0.0
 11
21.57178653606388
 21
-1.436170212764409
 31
0.0
  0
LINE
  5
1F98
330
1F85
100
AcDbEntity
  8
BISUKUGI
100
AcDbLine
 10
21.57178653606388
 20
-1.436170212764409
 30
0.0
 11
20.44367334071285
 21
1.436170212764409
 31
0.0
  0
LINE
  5
1F99
330
1F85
100
AcDbEntity
  8
BISUKUGI
100
AcDbLine
 10
20.44367334071285
 20
1.436170212764409
 30
0.0
 11
19.89191489363293
 21
2.399999999997815
 31
0.0
  0
LINE
  5
1F9A
330
1F85
100
AcDbEntity
  8
BISUKUGI
100
AcDbLine
 10
19.89191489363293
 20
2.399999999997815
 30
0.0
 11
21.01531914895168
 21
-2.400000000001453
 31
0.0
  0
LINE
  5
1F9B
330
1F85
100
AcDbEntity
  8
BISUKUGI
100
AcDbLine
 10
17.69872340427537
 20
-2.400000000001453
 30
0.0
 11
18.25519079138757
 21
-1.436170212764409
 31
0.0
  0
LINE
  5
1F9C
330
1F85
100
AcDbEntity
  8
BISUKUGI
100
AcDbLine
 10
18.25519079138757
 20
-1.436170212764409
 30
0.0
 11
17.12707759603654
 21
1.436170212764409
 31
0.0
  0
LINE
  5
1F9D
330
1F85
100
AcDbEntity
  8
BISUKUGI
100
AcDbLine
 10
22.65204325119703
 20
1.436170212764409
 30
0.0
 11
20.44367334071285
 21
1.436170212764409
 31
0.0
  0
LINE
  5
1F9E
330
1F85
100
AcDbEntity
  8
BISUKUGI
100
AcDbLine
 10
19.33544750652072
 20
1.436170212764409
 30
0.0
 11
17.12707759603654
 21
1.436170212764409
 31
0.0
  0
LINE
  5
1F9F
330
1F85
100
AcDbEntity
  8
BISUKUGI
100
AcDbLine
 10
23.78015644655534
 20
-1.436170212764409
 30
0.0
 11
21.57178653606388
 21
-1.436170212764409
 31
0.0
  0
LINE
  5
1FA0
330
1F85
100
AcDbEntity
  8
BISUKUGI
100
AcDbLine
 10
20.46356070187176
 20
-1.436170212764409
 30
0.0
 11
18.25519079138757
 21
-1.436170212764409
 31
0.0
  0
LINE
  5
1FA1
330
1F85
100
AcDbEntity
  8
BISUKUGI
100
AcDbLine
 10
23.20851063830923
 20
2.399999999997815
 30
0.0
 11
22.65204325119703
 21
1.436170212764409
 31
0.0
  0
LINE
  5
1FA2
330
1F85
100
AcDbEntity
  8
BISUKUGI
100
AcDbLine
 10
22.65204325119703
 20
1.436170212764409
 30
0.0
 11
23.78015644654805
 21
-1.436170212764409
 31
0.0
  0
LINE
  5
1FA3
330
1F85
100
AcDbEntity
  8
BISUKUGI
100
AcDbLine
 10
23.78015644654805
 20
-1.436170212764409
 30
0.0
 11
24.33191489362798
 21
-2.400000000001453
 31
0.0
  0
LINE
  5
1FA4
330
1F85
100
AcDbEntity
  8
BISUKUGI
100
AcDbLine
 10
24.33191489362798
 20
-2.400000000001453
 30
0.0
 11
24.88838228074019
 21
-1.436170212764409
 31
0.0
  0
LINE
  5
1FA5
330
1F85
100
AcDbEntity
  8
BISUKUGI
100
AcDbLine
 10
24.88838228074019
 20
-1.436170212764409
 30
0.0
 11
23.76026908538916
 21
1.436170212764409
 31
0.0
  0
LINE
  5
1FA6
330
1F85
100
AcDbEntity
  8
BISUKUGI
100
AcDbLine
 10
23.76026908538916
 20
1.436170212764409
 30
0.0
 11
23.20851063830923
 21
2.399999999997815
 31
0.0
  0
LINE
  5
1FA7
330
1F85
100
AcDbEntity
  8
BISUKUGI
100
AcDbLine
 10
23.20851063830923
 20
2.399999999997815
 30
0.0
 11
24.33191489362798
 21
-2.400000000001453
 31
0.0
  0
LINE
  5
1FA8
330
1F85
100
AcDbEntity
  8
BISUKUGI
100
AcDbLine
 10
27.09675219123165
 20
-1.436170212764409
 30
0.0
 11
24.88838228074019
 21
-1.436170212764409
 31
0.0
  0
LINE
  5
1FA9
330
1F85
100
AcDbEntity
  8
BISUKUGI
100
AcDbLine
 10
25.96863899588061
 20
1.436170212764409
 30
0.0
 11
23.76026908538916
 21
1.436170212764409
 31
0.0
  0
LINE
  5
1FAA
330
1F85
100
AcDbEntity
  8
BISUKUGI
100
AcDbLine
 10
26.52510638299282
 20
2.399999999997815
 30
0.0
 11
25.96863899588061
 21
1.436170212764409
 31
0.0
  0
LINE
  5
1FAB
330
1F85
100
AcDbEntity
  8
BISUKUGI
100
AcDbLine
 10
25.96863899588061
 20
1.436170212764409
 30
0.0
 11
27.09675219123165
 21
-1.436170212764409
 31
0.0
  0
LINE
  5
1FAC
330
1F85
100
AcDbEntity
  8
BISUKUGI
100
AcDbLine
 10
27.09675219123165
 20
-1.436170212764409
 30
0.0
 11
27.64851063830429
 21
-2.400000000001453
 31
0.0
  0
LINE
  5
1FAD
330
1F85
100
AcDbEntity
  8
BISUKUGI
100
AcDbLine
 10
27.64851063830429
 20
-2.400000000001453
 30
0.0
 11
28.20497802542377
 21
-1.436170212764409
 31
0.0
  0
LINE
  5
1FAE
330
1F85
100
AcDbEntity
  8
BISUKUGI
100
AcDbLine
 10
28.20497802542377
 20
-1.436170212764409
 30
0.0
 11
27.07686483006546
 21
1.436170212764409
 31
0.0
  0
LINE
  5
1FAF
330
1F85
100
AcDbEntity
  8
BISUKUGI
100
AcDbLine
 10
27.07686483006546
 20
1.436170212764409
 30
0.0
 11
26.52510638299282
 21
2.399999999997815
 31
0.0
  0
LINE
  5
1FB0
330
1F85
100
AcDbEntity
  8
BISUKUGI
100
AcDbLine
 10
26.52510638299282
 20
2.399999999997815
 30
0.0
 11
27.64851063830429
 21
-2.400000000001453
 31
0.0
  0
LINE
  5
1FB1
330
1F85
100
AcDbEntity
  8
BISUKUGI
100
AcDbLine
 10
29.28523474055693
 20
1.436170212764409
 30
0.0
 11
27.07686483006546
 21
1.436170212764409
 31
0.0
  0
LINE
  5
1FB2
330
1F85
100
AcDbEntity
  8
BISUKUGI
100
AcDbLine
 10
43.17446808511884
 20
0.9631640020015764
 30
0.0
 11
42.97835560201199
 21
0.6234872172644828
 31
0.0
  0
LINE
  5
1FB3
330
1F85
100
AcDbEntity
  8
BISUKUGI
100
AcDbLine
 10
39.79148936170533
 20
2.399999999997815
 30
0.0
 11
39.23502197459311
 21
1.436170212764409
 31
0.0
  0
LINE
  5
1FB4
330
1F85
100
AcDbEntity
  8
BISUKUGI
100
AcDbLine
 10
39.23502197459311
 20
1.436170212764409
 30
0.0
 11
40.36313516994414
 21
-1.436170212764409
 31
0.0
  0
LINE
  5
1FB5
330
1F85
100
AcDbEntity
  8
BISUKUGI
100
AcDbLine
 10
40.36313516994414
 20
-1.436170212764409
 30
0.0
 11
40.91489361701678
 21
-2.400000000001453
 31
0.0
  0
LINE
  5
1FB6
330
1F85
100
AcDbEntity
  8
BISUKUGI
100
AcDbLine
 10
40.91489361701678
 20
-2.400000000001453
 30
0.0
 11
41.47136100413627
 21
-1.436170212764409
 31
0.0
  0
LINE
  5
1FB7
330
1F85
100
AcDbEntity
  8
BISUKUGI
100
AcDbLine
 10
41.47136100413627
 20
-1.436170212764409
 30
0.0
 11
40.34324780877796
 21
1.436170212764409
 31
0.0
  0
LINE
  5
1FB8
330
1F85
100
AcDbEntity
  8
BISUKUGI
100
AcDbLine
 10
40.34324780877796
 20
1.436170212764409
 30
0.0
 11
39.79148936170533
 21
2.399999999997815
 31
0.0
  0
LINE
  5
1FB9
330
1F85
100
AcDbEntity
  8
BISUKUGI
100
AcDbLine
 10
39.79148936170533
 20
2.399999999997815
 30
0.0
 11
40.91489361701678
 21
-2.400000000001453
 31
0.0
  0
LINE
  5
1FBA
330
1F85
100
AcDbEntity
  8
BISUKUGI
100
AcDbLine
 10
36.47489361702174
 20
2.399999999997815
 30
0.0
 11
37.59829787234048
 21
-2.400000000001453
 31
0.0
  0
LINE
  5
1FBB
330
1F85
100
AcDbEntity
  8
BISUKUGI
100
AcDbLine
 10
37.02665206410165
 20
1.436170212764409
 30
0.0
 11
36.47489361702174
 21
2.399999999997815
 31
0.0
  0
LINE
  5
1FBC
330
1F85
100
AcDbEntity
  8
BISUKUGI
100
AcDbLine
 10
38.15476525945269
 20
-1.436170212764409
 30
0.0
 11
37.02665206410165
 21
1.436170212764409
 31
0.0
  0
LINE
  5
1FBD
330
1F85
100
AcDbEntity
  8
BISUKUGI
100
AcDbLine
 10
37.59829787234048
 20
-2.400000000001453
 30
0.0
 11
38.15476525945269
 21
-1.436170212764409
 31
0.0
  0
LINE
  5
1FBE
330
1F85
100
AcDbEntity
  8
BISUKUGI
100
AcDbLine
 10
37.04653942526056
 20
-1.436170212764409
 30
0.0
 11
37.59829787234048
 21
-2.400000000001453
 31
0.0
  0
LINE
  5
1FBF
330
1F85
100
AcDbEntity
  8
BISUKUGI
100
AcDbLine
 10
35.91842622990953
 20
1.436170212764409
 30
0.0
 11
37.04653942526056
 21
-1.436170212764409
 31
0.0
  0
LINE
  5
1FC0
330
1F85
100
AcDbEntity
  8
BISUKUGI
100
AcDbLine
 10
36.47489361702174
 20
2.399999999997815
 30
0.0
 11
35.91842622990953
 21
1.436170212764409
 31
0.0
  0
LINE
  5
1FC1
330
1F85
100
AcDbEntity
  8
BISUKUGI
100
AcDbLine
 10
33.15829787234543
 20
2.399999999997815
 30
0.0
 11
32.60183048523322
 21
1.436170212764409
 31
0.0
  0
LINE
  5
1FC2
330
1F85
100
AcDbEntity
  8
BISUKUGI
100
AcDbLine
 10
32.60183048523322
 20
1.436170212764409
 30
0.0
 11
33.72994368058427
 21
-1.436170212764409
 31
0.0
  0
LINE
  5
1FC3
330
1F85
100
AcDbEntity
  8
BISUKUGI
100
AcDbLine
 10
33.72994368058427
 20
-1.436170212764409
 30
0.0
 11
34.28170212766417
 21
-2.400000000001453
 31
0.0
  0
LINE
  5
1FC4
330
1F85
100
AcDbEntity
  8
BISUKUGI
100
AcDbLine
 10
34.28170212766417
 20
-2.400000000001453
 30
0.0
 11
34.83816951477638
 21
-1.436170212764409
 31
0.0
  0
LINE
  5
1FC5
330
1F85
100
AcDbEntity
  8
BISUKUGI
100
AcDbLine
 10
33.71005631942535
 20
1.436170212764409
 30
0.0
 11
33.15829787234543
 21
2.399999999997815
 31
0.0
  0
LINE
  5
1FC6
330
1F85
100
AcDbEntity
  8
BISUKUGI
100
AcDbLine
 10
33.15829787234543
 20
2.399999999997815
 30
0.0
 11
34.28170212766417
 21
-2.400000000001453
 31
0.0
  0
LINE
  5
1FC7
330
1F85
100
AcDbEntity
  8
BISUKUGI
100
AcDbLine
 10
29.84170212766912
 20
2.399999999997815
 30
0.0
 11
29.28523474055693
 21
1.436170212764409
 31
0.0
  0
LINE
  5
1FC8
330
1F85
100
AcDbEntity
  8
BISUKUGI
100
AcDbLine
 10
29.28523474055693
 20
1.436170212764409
 30
0.0
 11
30.41334793590795
 21
-1.436170212764409
 31
0.0
  0
LINE
  5
1FC9
330
1F85
100
AcDbEntity
  8
BISUKUGI
100
AcDbLine
 10
30.41334793590795
 20
-1.436170212764409
 30
0.0
 11
30.96510638298787
 21
-2.400000000001453
 31
0.0
  0
LINE
  5
1FCA
330
1F85
100
AcDbEntity
  8
BISUKUGI
100
AcDbLine
 10
30.96510638298787
 20
-2.400000000001453
 30
0.0
 11
31.52157377010008
 21
-1.436170212764409
 31
0.0
  0
LINE
  5
1FCB
330
1F85
100
AcDbEntity
  8
BISUKUGI
100
AcDbLine
 10
31.52157377010008
 20
-1.436170212764409
 30
0.0
 11
30.39346057474904
 21
1.436170212764409
 31
0.0
  0
LINE
  5
1FCC
330
1F85
100
AcDbEntity
  8
BISUKUGI
100
AcDbLine
 10
30.39346057474904
 20
1.436170212764409
 30
0.0
 11
29.84170212766912
 21
2.399999999997815
 31
0.0
  0
LINE
  5
1FCD
330
1F85
100
AcDbEntity
  8
BISUKUGI
100
AcDbLine
 10
29.84170212766912
 20
2.399999999997815
 30
0.0
 11
30.96510638298787
 21
-2.400000000001453
 31
0.0
  0
LINE
  5
1FCE
330
1F85
100
AcDbEntity
  8
BISUKUGI
100
AcDbLine
 10
39.23502197459311
 20
1.436170212764409
 30
0.0
 11
37.02665206410165
 21
1.436170212764409
 31
0.0
  0
LINE
  5
1FCF
330
1F85
100
AcDbEntity
  8
BISUKUGI
100
AcDbLine
 10
35.91842622990953
 20
1.436170212764409
 30
0.0
 11
33.71005631942535
 21
1.436170212764409
 31
0.0
  0
LINE
  5
1FD0
330
1F85
100
AcDbEntity
  8
BISUKUGI
100
AcDbLine
 10
40.36313516994414
 20
-1.436170212764409
 30
0.0
 11
38.15476525945269
 21
-1.436170212764409
 31
0.0
  0
LINE
  5
1FD1
330
1F85
100
AcDbEntity
  8
BISUKUGI
100
AcDbLine
 10
40.34324780877796
 20
1.436170212764409
 30
0.0
 11
42.97835560201199
 21
0.6234872172644828
 31
0.0
  0
LINE
  5
1FD2
330
1F85
100
AcDbEntity
  8
BISUKUGI
100
AcDbLine
 10
32.60183048523322
 20
1.436170212764409
 30
0.0
 11
30.39346057474904
 21
1.436170212764409
 31
0.0
  0
LINE
  5
1FD3
330
1F85
100
AcDbEntity
  8
BISUKUGI
100
AcDbLine
 10
37.04653942526785
 20
-1.436170212764409
 30
0.0
 11
34.83816951477638
 21
-1.436170212764409
 31
0.0
  0
LINE
  5
1FD4
330
1F85
100
AcDbEntity
  8
BISUKUGI
100
AcDbLine
 10
33.72994368058427
 20
-1.436170212764409
 30
0.0
 11
31.52157377010008
 21
-1.436170212764409
 31
0.0
  0
LINE
  5
1FD5
330
1F85
100
AcDbEntity
  8
BISUKUGI
100
AcDbLine
 10
30.41334793590795
 20
-1.436170212764409
 30
0.0
 11
28.20497802542377
 21
-1.436170212764409
 31
0.0
  0
LINE
  5
1FD6
330
1F85
100
AcDbEntity
  8
BISUKUGI
100
AcDbLine
 10
34.83816951477638
 20
-1.436170212764409
 30
0.0
 11
33.71005631942535
 21
1.436170212764409
 31
0.0
  0
LINE
  5
1FD7
330
1F85
100
AcDbEntity
  8
BISUKUGI
100
AcDbLine
 10
0.5799999999944703
 20
-1.7106382978709
 30
0.0
 11
4.369333728718627
 21
-1.710638297881813
 31
0.0
  0
LINE
  5
1FD8
330
1F85
100
AcDbEntity
  8
BISUKUGI
100
AcDbLine
 10
3.753191489377058
 20
1.7106382978709
 30
0.0
 11
4.212210462334041
 21
-1.436170212764409
 31
0.0
  0
LINE
  5
1FD9
330
1F85
100
AcDbEntity
  8
BISUKUGI
100
AcDbLine
 10
9.385660272484527
 20
1.436170212764409
 30
0.0
 11
7.177290361993072
 21
1.436170212764409
 31
0.0
  0
LINE
  5
1FDA
330
1F85
100
AcDbEntity
  8
BISUKUGI
100
AcDbLine
 10
10.51377346783556
 20
-1.436170212764409
 30
0.0
 11
8.305403557351382
 21
-1.436170212764409
 31
0.0
  0
LINE
  5
1FDB
330
1F85
100
AcDbEntity
  8
BISUKUGI
100
AcDbLine
 10
4.828706952874199
 20
1.436170212764409
 30
0.0
 11
6.069064527808222
 21
1.436170212764409
 31
0.0
  0
LINE
  5
1FDC
330
1F85
100
AcDbEntity
  8
BISUKUGI
100
AcDbLine
 10
3.75319148939161
 20
1.710638297867262
 30
0.0
 11
4.828706952874199
 21
1.436170212764409
 31
0.0
  0
LINE
  5
1FDD
330
1F85
100
AcDbEntity
  8
BISUKUGI
100
AcDbLine
 10
6.625531914920427
 20
2.399999999997815
 30
0.0
 11
7.7489361702319
 21
-2.400000000001453
 31
0.0
  0
LINE
  5
1FDE
330
1F85
100
AcDbEntity
  8
BISUKUGI
100
AcDbLine
 10
7.177290361993072
 20
1.436170212764409
 30
0.0
 11
6.625531914920427
 21
2.399999999997815
 31
0.0
  0
LINE
  5
1FDF
330
1F85
100
AcDbEntity
  8
BISUKUGI
100
AcDbLine
 10
8.305403557351382
 20
-1.436170212764409
 30
0.0
 11
7.177290361993072
 21
1.436170212764409
 31
0.0
  0
LINE
  5
1FE0
330
1F85
100
AcDbEntity
  8
BISUKUGI
100
AcDbLine
 10
7.7489361702319
 20
-2.400000000001453
 30
0.0
 11
8.305403557351382
 21
-1.436170212764409
 31
0.0
  0
LINE
  5
1FE1
330
1F85
100
AcDbEntity
  8
BISUKUGI
100
AcDbLine
 10
7.197177723159255
 20
-1.436170212764409
 30
0.0
 11
7.7489361702319
 21
-2.400000000001453
 31
0.0
  0
LINE
  5
1FE2
330
1F85
100
AcDbEntity
  8
BISUKUGI
100
AcDbLine
 10
6.069064527808222
 20
1.436170212764409
 30
0.0
 11
7.197177723159255
 21
-1.436170212764409
 31
0.0
  0
LINE
  5
1FE3
330
1F85
100
AcDbEntity
  8
BISUKUGI
100
AcDbLine
 10
6.625531914920427
 20
2.399999999997815
 30
0.0
 11
6.069064527808222
 21
1.436170212764409
 31
0.0
  0
LINE
  5
1FE4
330
1F85
100
AcDbEntity
  8
BISUKUGI
100
AcDbLine
 10
9.942127659596735
 20
2.399999999997815
 30
0.0
 11
11.06553191491548
 21
-2.400000000001453
 31
0.0
  0
LINE
  5
1FE5
330
1F85
100
AcDbEntity
  8
BISUKUGI
100
AcDbLine
 10
10.49388610667665
 20
1.436170212764409
 30
0.0
 11
9.942127659596735
 21
2.399999999997815
 31
0.0
  0
LINE
  5
1FE6
330
1F85
100
AcDbEntity
  8
BISUKUGI
100
AcDbLine
 10
11.62199930202769
 20
-1.436170212764409
 30
0.0
 11
10.49388610667665
 21
1.436170212764409
 31
0.0
  0
LINE
  5
1FE7
330
1F85
100
AcDbEntity
  8
BISUKUGI
100
AcDbLine
 10
11.06553191491548
 20
-2.400000000001453
 30
0.0
 11
11.62199930202769
 21
-1.436170212764409
 31
0.0
  0
LINE
  5
1FE8
330
1F85
100
AcDbEntity
  8
BISUKUGI
100
AcDbLine
 10
10.51377346783556
 20
-1.436170212764409
 30
0.0
 11
11.06553191491548
 21
-2.400000000001453
 31
0.0
  0
LINE
  5
1FE9
330
1F85
100
AcDbEntity
  8
BISUKUGI
100
AcDbLine
 10
9.385660272484527
 20
1.436170212764409
 30
0.0
 11
10.51377346783556
 21
-1.436170212764409
 31
0.0
  0
LINE
  5
1FEA
330
1F85
100
AcDbEntity
  8
BISUKUGI
100
AcDbLine
 10
9.942127659596735
 20
2.399999999997815
 30
0.0
 11
9.385660272484527
 21
1.436170212764409
 31
0.0
  0
LINE
  5
1FEB
330
1F85
100
AcDbEntity
  8
BISUKUGI
100
AcDbLine
 10
4.828706952874199
 20
-1.436170212764409
 30
0.0
 11
4.51914893619687
 21
-1.972340425534639
 31
0.0
  0
LINE
  5
1FEC
330
1F85
100
AcDbEntity
  8
BISUKUGI
100
AcDbLine
 10
4.51914893619687
 20
-1.972340425534639
 30
0.0
 11
4.212210462334041
 21
-1.436170212764409
 31
0.0
  0
LINE
  5
1FED
330
1F85
100
AcDbEntity
  8
BISUKUGI
100
AcDbLine
 10
3.75319148939161
 20
1.7106382978709
 30
0.0
 11
3.910314755776198
 21
1.436170212764409
 31
0.0
  0
LINE
  5
1FEE
330
1F85
100
AcDbEntity
  8
BISUKUGI
100
AcDbLine
 10
3.910314755776198
 20
1.436170212764409
 30
0.0
 11
4.828706952874199
 21
-1.436170212764409
 31
0.0
  0
LINE
  5
1FEF
330
1F85
100
AcDbEntity
  8
BISUKUGI
100
AcDbLine
 10
3.75319148939161
 20
1.710638297867262
 30
0.0
 11
4.51914893619687
 21
-1.972340425534639
 31
0.0
  0
LINE
  5
1FF0
330
1F85
100
AcDbEntity
  8
BISUKUGI
100
AcDbLine
 10
7.197177723159255
 20
-1.436170212764409
 30
0.0
 11
4.828706952874425
 21
-1.436170212764409
 31
0.0
  0
LINE
  5
1FF1
330
1F85
100
AcDbEntity
  8
BISUKUGI
100
AcDbLine
 10
0.5799999999944703
 20
1.7106382978709
 30
0.0
 11
3.753191489377058
 21
1.710638297856348
 31
0.0
  0
ARC
  5
1FF2
330
1F85
100
AcDbEntity
  8
BISUKUGI
100
AcDbCircle
 10
2.770432692304892
 20
0.0
 30
0.0000000001136514
 40
5.29043269231052
100
AcDbArc
 50
184.8794294077591
 51
216.5421819739399
  0
ARC
  5
1FF3
330
1F85
100
AcDbEntity
  8
BISUKUGI
100
AcDbCircle
 10
17.85033854166249
 20
0.0
 30
0.0000000001136514
 40
19.58531307218241
100
AcDbArc
 50
189.2553545715485
 51
195.7462121553012
  0
ARC
  5
1FF4
330
1F85
100
AcDbEntity
  8
BISUKUGI
100
AcDbCircle
 10
17.85033854166249
 20
0.0
 30
0.0000000001136514
 40
19.58531307218241
100
AcDbArc
 50
164.2537878446988
 51
170.7446454284512
  0
ARC
  5
1FF5
330
1F85
100
AcDbEntity
  8
BISUKUGI
100
AcDbCircle
 10
2.770432692304892
 20
0.0
 30
0.0000000001136514
 40
5.29043269231052
100
AcDbArc
 50
143.4578180260601
 51
175.1205705922408
  0
LINE
  5
1FF6
330
1F85
100
AcDbEntity
  8
BISUKUGI
100
AcDbLine
 10
-0.5600000000049477
 20
5.315000000002328
 30
0.0
 11
-0.5600000000049477
 21
-5.31499999999869
 31
0.0
  0
LINE
  5
1FF7
330
1F85
100
AcDbEntity
  8
BISUKUGI
100
AcDbLine
 10
0.5799999999944703
 20
-1.7106382978709
 30
0.0
 11
0.5799999999944703
 21
1.7106382978709
 31
0.0
  0
LINE
  5
1FF8
330
1F85
100
AcDbEntity
  8
BISUKUGI
100
AcDbLine
 10
-1.840000000003783
 20
-0.4500000000007276
 30
0.0
 11
-2.494759183005953
 21
-0.4500000000007276
 31
0.0
  0
LINE
  5
1FF9
330
1F85
100
AcDbEntity
  8
BISUKUGI
100
AcDbLine
 10
-1.840000000003783
 20
0.4500000000007276
 30
0.0
 11
-1.840000000003783
 21
-0.4500000000007276
 31
0.0
  0
LINE
  5
1FFA
330
1F85
100
AcDbEntity
  8
BISUKUGI
100
AcDbLine
 10
-2.494759183005953
 20
0.4500000000007276
 30
0.0
 11
-1.840000000003783
 21
0.4500000000007276
 31
0.0
  0
LINE
  5
1FFB
330
1F85
100
AcDbEntity
  8
BISUKUGI
100
AcDbLine
 10
-1.0
 20
5.315000000002328
 30
0.0
 11
-1.0
 21
-5.31499999999869
 31
0.0
  0
LINE
  5
1FFC
330
1F85
100
AcDbEntity
  8
BISUKUGI
100
AcDbLine
 10
-0.5600000000049477
 20
-5.36499999999796
 30
0.0
 11
-1.0
 21
-5.31499999999869
 31
0.0
  0
LINE
  5
1FFD
330
1F85
100
AcDbEntity
  8
BISUKUGI
100
AcDbLine
 10
0.0
 20
-4.75
 30
0.0
 11
-0.5600000000049477
 21
-5.36499999999796
 31
0.0
  0
LINE
  5
1FFE
330
1F85
100
AcDbEntity
  8
BISUKUGI
100
AcDbLine
 10
-0.5600000000049477
 20
5.365000000001598
 30
0.0
 11
-1.0
 21
5.315000000002328
 31
0.0
  0
LINE
  5
1FFF
330
1F85
100
AcDbEntity
  8
BISUKUGI
100
AcDbLine
 10
0.0
 20
4.75
 30
0.0
 11
-0.5600000000049477
 21
5.365000000001598
 31
0.0
  0
LINE
  5
2000
330
1F85
100
AcDbEntity
  8
BISUKUGI
100
AcDbLine
 10
0.0
 20
4.75
 30
0.0
 11
0.0
 21
-4.75
 31
0.0
  0
LINE
  5
2001
330
1F85
100
AcDbEntity
  8
BISUKUGI
100
AcDbLine
 10
0.5799999999944703
 20
-1.7106382978709
 30
0.0
 11
0.0
 21
-2.58063829786988
 31
0.0
  0
LINE
  5
2002
330
1F85
100
AcDbEntity
  8
BISUKUGI
100
AcDbLine
 10
0.5799999999944703
 20
1.7106382978709
 30
0.0
 11
0.0
 21
2.58063829786988
 31
0.0
  0
LINE
  5
2003
330
1F85
100
AcDbEntity
  8
BISUKUGI
100
AcDbLine
 10
13.83036921251187
 20
-1.436170212764409
 30
0.0
 11
11.62199930202769
 21
-1.436170212764409
 31
0.0
  0
LINE
  5
2004
330
1F85
100
AcDbEntity
  8
BISUKUGI
100
AcDbLine
 10
12.70225601716811
 20
1.436170212764409
 30
0.0
 11
10.49388610667665
 21
1.436170212764409
 31
0.0
  0
LINE
  5
2005
330
1F85
100
AcDbEntity
  8
BISUKUGI
100
AcDbLine
 10
13.81048185135296
 20
1.436170212764409
 30
0.0
 11
13.25872340427304
 21
2.399999999997815
 31
0.0
  0
LINE
  5
2006
330
1F85
100
AcDbEntity
  8
BISUKUGI
100
AcDbLine
 10
12.70225601716811
 20
1.436170212764409
 30
0.0
 11
13.83036921251187
 21
-1.436170212764409
 31
0.0
  0
LINE
  5
2007
330
1F85
100
AcDbEntity
  8
BISUKUGI
100
AcDbLine
 10
13.25872340427304
 20
2.399999999997815
 30
0.0
 11
12.70225601716811
 21
1.436170212764409
 31
0.0
  0
LINE
  5
2008
330
1F85
100
AcDbEntity
  8
BISUKUGI
100
AcDbLine
 10
43.9404255319241
 20
-0.374956108895276
 30
0.0
 11
43.17446808511884
 21
0.9631640020015764
 31
0.0
  0
LINE
  5
2009
330
1F85
100
AcDbEntity
  8
BISUKUGI
100
AcDbLine
 10
42.97835560201199
 20
0.6234872172644828
 30
0.0
 11
43.9404255319241
 21
-0.374956108895276
 31
0.0
  0
LINE
  5
200A
330
1F85
100
AcDbEntity
  8
BISUKUGI
100
AcDbLine
 10
45.0
 20
0.0
 30
0.0
 11
41.44364442809457
 21
-1.436170212764409
 31
0.0
  0
LINE
  5
200B
330
1F85
100
AcDbEntity
  8
BISUKUGI
100
AcDbLine
 10
43.4526298055207
 20
0.4772182178021467
 30
0.0
 11
45.0
 21
0.0
 31
0.0
  0
ENDBLK
  5
200C
330
1F85
100
AcDbEntity
  8
0
100
AcDbBlockEnd
  0
BLOCK
  5
2936
330
2935
100
AcDbEntity
  8
0
100
AcDbBlockBegin
  2
平頭L25
 70
     0
 10
0.0
 20
0.0
 30
0.0
  3
平頭L25
  1

  0
LINE
  5
2937
330
2935
100
AcDbEntity
  8
BISUKUGI
100
AcDbLine
 10
0.9632929476676963
 20
-23.17446808511795
 30
0.0
 11
0.6236161629306026
 21
-22.97835560201111
 31
0.0
  0
LINE
  5
2938
330
2935
100
AcDbEntity
  8
BISUKUGI
100
AcDbLine
 10
2.400128945663936
 20
-19.79148936170441
 30
0.0
 11
1.436299158430529
 21
-19.2350219745922
 31
0.0
  0
LINE
  5
2939
330
2935
100
AcDbEntity
  8
BISUKUGI
100
AcDbLine
 10
1.436299158430529
 20
-19.2350219745922
 30
0.0
 11
-1.436041267098289
 21
-20.36313516994324
 31
0.0
  0
LINE
  5
293A
330
2935
100
AcDbEntity
  8
BISUKUGI
100
AcDbLine
 10
-1.436041267098289
 20
-20.36313516994324
 30
0.0
 11
-2.399871054335335
 21
-20.91489361701588
 31
0.0
  0
LINE
  5
293B
330
2935
100
AcDbEntity
  8
BISUKUGI
100
AcDbLine
 10
-2.399871054335335
 20
-20.91489361701588
 30
0.0
 11
-1.436041267098289
 21
-21.47136100413536
 31
0.0
  0
LINE
  5
293C
330
2935
100
AcDbEntity
  8
BISUKUGI
100
AcDbLine
 10
-1.436041267098289
 20
-21.47136100413536
 30
0.0
 11
1.436299158430529
 21
-20.34324780877705
 31
0.0
  0
LINE
  5
293D
330
2935
100
AcDbEntity
  8
BISUKUGI
100
AcDbLine
 10
1.436299158430529
 20
-20.34324780877705
 30
0.0
 11
2.400128945663936
 21
-19.79148936170441
 31
0.0
  0
LINE
  5
293E
330
2935
100
AcDbEntity
  8
BISUKUGI
100
AcDbLine
 10
2.400128945663936
 20
-19.79148936170441
 30
0.0
 11
-2.399871054335335
 21
-20.91489361701588
 31
0.0
  0
LINE
  5
293F
330
2935
100
AcDbEntity
  8
BISUKUGI
100
AcDbLine
 10
2.400128945663936
 20
-16.47489361702082
 30
0.0
 11
-2.399871054335335
 21
-17.59829787233957
 31
0.0
  0
LINE
  5
2940
330
2935
100
AcDbEntity
  8
BISUKUGI
100
AcDbLine
 10
1.436299158430529
 20
-17.02665206410074
 30
0.0
 11
2.400128945663936
 21
-16.47489361702082
 31
0.0
  0
LINE
  5
2941
330
2935
100
AcDbEntity
  8
BISUKUGI
100
AcDbLine
 10
-1.436041267098289
 20
-18.15476525945178
 30
0.0
 11
1.436299158430529
 21
-17.02665206410074
 31
0.0
  0
LINE
  5
2942
330
2935
100
AcDbEntity
  8
BISUKUGI
100
AcDbLine
 10
-2.399871054335335
 20
-17.59829787233957
 30
0.0
 11
-1.436041267098289
 21
-18.15476525945178
 31
0.0
  0
LINE
  5
2943
330
2935
100
AcDbEntity
  8
BISUKUGI
100
AcDbLine
 10
-1.436041267098289
 20
-17.04653942525965
 30
0.0
 11
-2.399871054335335
 21
-17.59829787233957
 31
0.0
  0
LINE
  5
2944
330
2935
100
AcDbEntity
  8
BISUKUGI
100
AcDbLine
 10
1.436299158430529
 20
-15.91842622990862
 30
0.0
 11
-1.436041267098289
 21
-17.04653942525965
 31
0.0
  0
LINE
  5
2945
330
2935
100
AcDbEntity
  8
BISUKUGI
100
AcDbLine
 10
2.400128945663936
 20
-16.47489361702082
 30
0.0
 11
1.436299158430529
 21
-15.91842622990862
 31
0.0
  0
LINE
  5
2946
330
2935
100
AcDbEntity
  8
BISUKUGI
100
AcDbLine
 10
1.436299158430529
 20
-19.2350219745922
 30
0.0
 11
1.436299158430529
 21
-17.02665206410074
 31
0.0
  0
LINE
  5
2947
330
2935
100
AcDbEntity
  8
BISUKUGI
100
AcDbLine
 10
-1.436041267098289
 20
-20.36313516994324
 30
0.0
 11
-1.436041267098289
 21
-18.15476525945178
 31
0.0
  0
LINE
  5
2948
330
2935
100
AcDbEntity
  8
BISUKUGI
100
AcDbLine
 10
1.436299158430529
 20
-20.34324780877705
 30
0.0
 11
0.6236161629306026
 21
-22.97835560201111
 31
0.0
  0
LINE
  5
2949
330
2935
100
AcDbEntity
  8
BISUKUGI
100
AcDbLine
 10
-1.710509352237295
 20
-0.5799999999944703
 30
0.0
 11
-1.710509352248209
 21
-4.369333728718629
 31
0.0
  0
LINE
  5
294A
330
2935
100
AcDbEntity
  8
BISUKUGI
100
AcDbLine
 10
1.710767243504506
 20
-3.753191489377059
 30
0.0
 11
-1.436041267130804
 21
-4.212210462334041
 31
0.0
  0
LINE
  5
294B
330
2935
100
AcDbEntity
  8
BISUKUGI
100
AcDbLine
 10
1.436299158398014
 20
-4.828706952874199
 30
0.0
 11
1.436299158398014
 21
-5.968638995894252
 31
0.0
  0
LINE
  5
294C
330
2935
100
AcDbEntity
  8
BISUKUGI
100
AcDbLine
 10
1.710767243500868
 20
-3.75319148939161
 30
0.0
 11
1.436299158398014
 21
-4.828706952874199
 31
0.0
  0
LINE
  5
294D
330
2935
100
AcDbEntity
  8
BISUKUGI
100
AcDbLine
 10
2.400128945631422
 20
-6.52510638300464
 30
0.0
 11
-2.399871054367849
 21
-7.64851063831611
 31
0.0
  0
LINE
  5
294E
330
2935
100
AcDbEntity
  8
BISUKUGI
100
AcDbLine
 10
1.436299158398014
 20
-7.076864830077283
 30
0.0
 11
2.400128945631422
 21
-6.52510638300464
 31
0.0
  0
LINE
  5
294F
330
2935
100
AcDbEntity
  8
BISUKUGI
100
AcDbLine
 10
-1.436041267130804
 20
-8.204978025435593
 30
0.0
 11
1.436299158398014
 21
-7.076864830077283
 31
0.0
  0
LINE
  5
2950
330
2935
100
AcDbEntity
  8
BISUKUGI
100
AcDbLine
 10
-2.399871054367849
 20
-7.64851063831611
 30
0.0
 11
-1.436041267130804
 21
-8.204978025435593
 31
0.0
  0
LINE
  5
2951
330
2935
100
AcDbEntity
  8
BISUKUGI
100
AcDbLine
 10
-1.436041267130804
 20
-7.096752191243467
 30
0.0
 11
-2.399871054367849
 21
-7.64851063831611
 31
0.0
  0
LINE
  5
2952
330
2935
100
AcDbEntity
  8
BISUKUGI
100
AcDbLine
 10
1.436299158398014
 20
-5.968638995892433
 30
0.0
 11
-1.436041267130804
 21
-7.096752191243467
 31
0.0
  0
LINE
  5
2953
330
2935
100
AcDbEntity
  8
BISUKUGI
100
AcDbLine
 10
2.400128945631422
 20
-6.52510638300464
 30
0.0
 11
1.436299158398014
 21
-5.968638995892433
 31
0.0
  0
LINE
  5
2954
330
2935
100
AcDbEntity
  8
BISUKUGI
100
AcDbLine
 10
-1.436041267130804
 20
-4.828706952874199
 30
0.0
 11
-1.972211479901034
 21
-4.51914893619687
 31
0.0
  0
LINE
  5
2955
330
2935
100
AcDbEntity
  8
BISUKUGI
100
AcDbLine
 10
-1.972211479901034
 20
-4.51914893619687
 30
0.0
 11
-1.436041267130804
 21
-4.212210462334041
 31
0.0
  0
LINE
  5
2956
330
2935
100
AcDbEntity
  8
BISUKUGI
100
AcDbLine
 10
1.710767243504506
 20
-3.75319148939161
 30
0.0
 11
1.436299158398014
 21
-3.910314755776198
 31
0.0
  0
LINE
  5
2957
330
2935
100
AcDbEntity
  8
BISUKUGI
100
AcDbLine
 10
1.436299158398014
 20
-3.910314755776198
 30
0.0
 11
-1.436041267130804
 21
-4.828706952874199
 31
0.0
  0
LINE
  5
2958
330
2935
100
AcDbEntity
  8
BISUKUGI
100
AcDbLine
 10
1.710767243500868
 20
-3.75319148939161
 30
0.0
 11
-1.972211479901034
 21
-4.51914893619687
 31
0.0
  0
LINE
  5
2959
330
2935
100
AcDbEntity
  8
BISUKUGI
100
AcDbLine
 10
-1.436041267130804
 20
-7.096752191243467
 30
0.0
 11
-1.436041267130804
 21
-4.828706952874199
 31
0.0
  0
LINE
  5
295A
330
2935
100
AcDbEntity
  8
BISUKUGI
100
AcDbLine
 10
1.710767243504506
 20
-0.5799999999944703
 30
0.0
 11
1.710767243489954
 21
-3.753191489377059
 31
0.0
  0
LINE
  5
295B
330
2935
100
AcDbEntity
  8
BISUKUGI
100
AcDbLine
 10
-1.710509352237295
 20
-0.5799999999944703
 30
0.0
 11
1.710767243504506
 21
-0.5799999999944703
 31
0.0
  0
LINE
  5
295C
330
2935
100
AcDbEntity
  8
BISUKUGI
100
AcDbLine
 10
-0.3748271632291562
 20
-23.94042553192321
 30
0.0
 11
0.9632929476676963
 21
-23.17446808511795
 31
0.0
  0
LINE
  5
295D
330
2935
100
AcDbEntity
  8
BISUKUGI
100
AcDbLine
 10
0.6236161629306026
 20
-22.97835560201111
 30
0.0
 11
-0.3748271632291562
 21
-23.94042553192321
 31
0.0
  0
LINE
  5
295E
330
2935
100
AcDbEntity
  8
BISUKUGI
100
AcDbLine
 10
0.0001289456661198
 20
-24.99999999999909
 30
0.0
 11
-1.436041267098289
 21
-21.44364442809365
 31
0.0
  0
LINE
  5
295F
330
2935
100
AcDbEntity
  8
BISUKUGI
100
AcDbLine
 10
0.4773471634682665
 20
-23.45262980551979
 30
0.0
 11
0.0001289456661198
 21
-24.99999999999909
 31
0.0
  0
LINE
  5
2960
330
2935
100
AcDbEntity
  8
BISUKUGI
100
AcDbLine
 10
1.436299158430529
 20
-9.285234740556006
 30
0.0
 11
1.436299158430529
 21
-7.07686483006455
 31
0.0
  0
LINE
  5
2961
330
2935
100
AcDbEntity
  8
BISUKUGI
100
AcDbLine
 10
2.400128945663936
 20
-13.15829787234452
 30
0.0
 11
1.436299158430529
 21
-12.60183048523231
 31
0.0
  0
LINE
  5
2962
330
2935
100
AcDbEntity
  8
BISUKUGI
100
AcDbLine
 10
1.436299158430529
 20
-12.60183048523231
 30
0.0
 11
-1.436041267098289
 21
-13.72994368058334
 31
0.0
  0
LINE
  5
2963
330
2935
100
AcDbEntity
  8
BISUKUGI
100
AcDbLine
 10
-1.436041267098289
 20
-13.72994368058334
 30
0.0
 11
-2.399871054335335
 21
-14.28170212766326
 31
0.0
  0
LINE
  5
2964
330
2935
100
AcDbEntity
  8
BISUKUGI
100
AcDbLine
 10
-2.399871054335335
 20
-14.28170212766326
 30
0.0
 11
-1.436041267098289
 21
-14.83816951477547
 31
0.0
  0
LINE
  5
2965
330
2935
100
AcDbEntity
  8
BISUKUGI
100
AcDbLine
 10
1.436299158430529
 20
-13.71005631942444
 30
0.0
 11
2.400128945663936
 21
-13.15829787234452
 31
0.0
  0
LINE
  5
2966
330
2935
100
AcDbEntity
  8
BISUKUGI
100
AcDbLine
 10
2.400128945663936
 20
-13.15829787234452
 30
0.0
 11
-2.399871054335335
 21
-14.28170212766326
 31
0.0
  0
LINE
  5
2967
330
2935
100
AcDbEntity
  8
BISUKUGI
100
AcDbLine
 10
2.400128945663936
 20
-9.841702127668213
 30
0.0
 11
1.436299158430529
 21
-9.285234740556006
 31
0.0
  0
LINE
  5
2968
330
2935
100
AcDbEntity
  8
BISUKUGI
100
AcDbLine
 10
1.436299158430529
 20
-9.285234740556006
 30
0.0
 11
-1.436041267098289
 21
-10.41334793590704
 31
0.0
  0
LINE
  5
2969
330
2935
100
AcDbEntity
  8
BISUKUGI
100
AcDbLine
 10
-1.436041267098289
 20
-10.41334793590704
 30
0.0
 11
-2.399871054335335
 21
-10.96510638298696
 31
0.0
  0
LINE
  5
296A
330
2935
100
AcDbEntity
  8
BISUKUGI
100
AcDbLine
 10
-2.399871054335335
 20
-10.96510638298696
 30
0.0
 11
-1.436041267098289
 21
-11.52157377009916
 31
0.0
  0
LINE
  5
296B
330
2935
100
AcDbEntity
  8
BISUKUGI
100
AcDbLine
 10
-1.436041267098289
 20
-11.52157377009916
 30
0.0
 11
1.436299158430529
 21
-10.39346057474813
 31
0.0
  0
LINE
  5
296C
330
2935
100
AcDbEntity
  8
BISUKUGI
100
AcDbLine
 10
1.436299158430529
 20
-10.39346057474813
 30
0.0
 11
2.400128945663936
 21
-9.841702127668213
 31
0.0
  0
LINE
  5
296D
330
2935
100
AcDbEntity
  8
BISUKUGI
100
AcDbLine
 10
2.400128945663936
 20
-9.841702127668213
 30
0.0
 11
-2.399871054335335
 21
-10.96510638298696
 31
0.0
  0
LINE
  5
296E
330
2935
100
AcDbEntity
  8
BISUKUGI
100
AcDbLine
 10
1.436299158430529
 20
-15.91842622990862
 30
0.0
 11
1.436299158430529
 21
-13.71005631942444
 31
0.0
  0
LINE
  5
296F
330
2935
100
AcDbEntity
  8
BISUKUGI
100
AcDbLine
 10
1.436299158430529
 20
-12.60183048523231
 30
0.0
 11
1.436299158430529
 21
-10.39346057474813
 31
0.0
  0
LINE
  5
2970
330
2935
100
AcDbEntity
  8
BISUKUGI
100
AcDbLine
 10
-1.436041267098289
 20
-17.04653942526693
 30
0.0
 11
-1.436041267098289
 21
-14.83816951477547
 31
0.0
  0
LINE
  5
2971
330
2935
100
AcDbEntity
  8
BISUKUGI
100
AcDbLine
 10
-1.436041267098289
 20
-13.72994368058334
 30
0.0
 11
-1.436041267098289
 21
-11.52157377009916
 31
0.0
  0
LINE
  5
2972
330
2935
100
AcDbEntity
  8
BISUKUGI
100
AcDbLine
 10
-1.436041267098289
 20
-10.41334793590704
 30
0.0
 11
-1.436041267098289
 21
-8.20497802542286
 31
0.0
  0
LINE
  5
2973
330
2935
100
AcDbEntity
  8
BISUKUGI
100
AcDbLine
 10
-1.436041267098289
 20
-14.83816951477547
 30
0.0
 11
1.436299158430529
 21
-13.71005631942444
 31
0.0
  0
LINE
  5
2974
330
2935
100
AcDbEntity
  8
BISUKUGI
100
AcDbLine
 10
3.750930610636828
 20
1.0
 30
0.0
 11
-3.717969113518165
 21
1.000000000000909
 31
0.0
  0
LINE
  5
2975
330
2935
100
AcDbEntity
  8
BISUKUGI
100
AcDbLine
 10
3.750128945633605
 20
0.0
 30
0.0
 11
-3.750128945633605
 21
0.0
 31
0.0
  0
LINE
  5
2976
330
2935
100
AcDbEntity
  8
BISUKUGI
100
AcDbLine
 10
-1.710509352237295
 20
-0.5799999999944703
 30
0.0
 11
-2.580509352236276
 21
0.0
 31
0.0
  0
LINE
  5
2977
330
2935
100
AcDbEntity
  8
BISUKUGI
100
AcDbLine
 10
1.710767243504506
 20
-0.5799999999944703
 30
0.0
 11
2.580767243503487
 21
0.0
 31
0.0
  0
ARC
  5
2978
330
2935
100
AcDbEntity
  8
BISUKUGI
100
AcDbCircle
 10
-3.750128945633605
 20
0.5
 30
0.0
 40
0.5
100
AcDbArc
 50
86.31939162205268
 51
270.0
  0
ARC
  5
2979
330
2935
100
AcDbEntity
  8
BISUKUGI
100
AcDbCircle
 10
3.750128945633605
 20
0.5
 30
0.0
 40
0.5
100
AcDbArc
 50
270.0
 51
90.0
  0
ENDBLK
  5
297A
330
2935
100
AcDbEntity
  8
0
100
AcDbBlockEnd
  0
BLOCK
  5
2986
330
2985
100
AcDbEntity
  8
0
100
AcDbBlockBegin
  2
平頭L45
 70
     0
 10
0.0
 20
0.0
 30
0.0
  3
平頭L45
  1

  0
LINE
  5
2987
330
2985
100
AcDbEntity
  8
BISUKUGI
100
AcDbLine
 10
2.400128945631422
 20
-16.57531914894935
 30
0.0
 11
1.436299158398014
 21
-16.01885176184441
 31
0.0
  0
LINE
  5
2988
330
2985
100
AcDbEntity
  8
BISUKUGI
100
AcDbLine
 10
1.436299158398014
 20
-16.01885176184441
 30
0.0
 11
-1.436041267130804
 21
-17.14696495718817
 31
0.0
  0
LINE
  5
2989
330
2985
100
AcDbEntity
  8
BISUKUGI
100
AcDbLine
 10
-1.436041267130804
 20
-17.14696495718817
 30
0.0
 11
-2.399871054367849
 21
-17.69872340427537
 31
0.0
  0
LINE
  5
298A
330
2985
100
AcDbEntity
  8
BISUKUGI
100
AcDbLine
 10
1.436299158398014
 20
-17.12707759603654
 30
0.0
 11
2.400128945631422
 21
-16.57531914894935
 31
0.0
  0
LINE
  5
298B
330
2985
100
AcDbEntity
  8
BISUKUGI
100
AcDbLine
 10
2.400128945631422
 20
-16.57531914894935
 30
0.0
 11
-2.399871054367849
 21
-17.69872340427537
 31
0.0
  0
LINE
  5
298C
330
2985
100
AcDbEntity
  8
BISUKUGI
100
AcDbLine
 10
-1.436041267130804
 20
-17.14696495719545
 30
0.0
 11
-1.436041267130804
 21
-14.93859504671127
 31
0.0
  0
LINE
  5
298D
330
2985
100
AcDbEntity
  8
BISUKUGI
100
AcDbLine
 10
1.436299158398014
 20
-16.01885176184441
 30
0.0
 11
1.436299158398014
 21
-13.81048185135296
 31
0.0
  0
LINE
  5
298E
330
2985
100
AcDbEntity
  8
BISUKUGI
100
AcDbLine
 10
2.400128945631422
 20
-13.25872340427304
 30
0.0
 11
-2.399871054367849
 21
-14.38212765959178
 31
0.0
  0
LINE
  5
298F
330
2985
100
AcDbEntity
  8
BISUKUGI
100
AcDbLine
 10
-1.436041267130804
 20
-14.93859504671127
 30
0.0
 11
1.436299158398014
 21
-13.81048185135296
 31
0.0
  0
LINE
  5
2990
330
2985
100
AcDbEntity
  8
BISUKUGI
100
AcDbLine
 10
-2.399871054367849
 20
-14.38212765959178
 30
0.0
 11
-1.436041267130804
 21
-14.93859504671127
 31
0.0
  0
LINE
  5
2991
330
2985
100
AcDbEntity
  8
BISUKUGI
100
AcDbLine
 10
-1.436041267130804
 20
-13.83036921251187
 30
0.0
 11
-2.399871054367849
 21
-14.38212765959178
 31
0.0
  0
LINE
  5
2992
330
2985
100
AcDbEntity
  8
BISUKUGI
100
AcDbLine
 10
2.400128945631422
 20
-19.89191489363293
 30
0.0
 11
1.436299158398014
 21
-19.33544750652072
 31
0.0
  0
LINE
  5
2993
330
2985
100
AcDbEntity
  8
BISUKUGI
100
AcDbLine
 10
1.436299158398014
 20
-19.33544750652072
 30
0.0
 11
-1.436041267130804
 21
-20.46356070187176
 31
0.0
  0
LINE
  5
2994
330
2985
100
AcDbEntity
  8
BISUKUGI
100
AcDbLine
 10
-1.436041267130804
 20
-20.46356070187176
 30
0.0
 11
-2.399871054367849
 21
-21.01531914895168
 31
0.0
  0
LINE
  5
2995
330
2985
100
AcDbEntity
  8
BISUKUGI
100
AcDbLine
 10
-2.399871054367849
 20
-21.01531914895168
 30
0.0
 11
-1.436041267130804
 21
-21.57178653606388
 31
0.0
  0
LINE
  5
2996
330
2985
100
AcDbEntity
  8
BISUKUGI
100
AcDbLine
 10
-1.436041267130804
 20
-21.57178653606388
 30
0.0
 11
1.436299158398014
 21
-20.44367334071285
 31
0.0
  0
LINE
  5
2997
330
2985
100
AcDbEntity
  8
BISUKUGI
100
AcDbLine
 10
1.436299158398014
 20
-20.44367334071285
 30
0.0
 11
2.400128945631422
 21
-19.89191489363293
 31
0.0
  0
LINE
  5
2998
330
2985
100
AcDbEntity
  8
BISUKUGI
100
AcDbLine
 10
2.400128945631422
 20
-19.89191489363293
 30
0.0
 11
-2.399871054367849
 21
-21.01531914895168
 31
0.0
  0
LINE
  5
2999
330
2985
100
AcDbEntity
  8
BISUKUGI
100
AcDbLine
 10
-2.399871054367849
 20
-17.69872340427537
 30
0.0
 11
-1.436041267130804
 21
-18.25519079138757
 31
0.0
  0
LINE
  5
299A
330
2985
100
AcDbEntity
  8
BISUKUGI
100
AcDbLine
 10
-1.436041267130804
 20
-18.25519079138757
 30
0.0
 11
1.436299158398014
 21
-17.12707759603654
 31
0.0
  0
LINE
  5
299B
330
2985
100
AcDbEntity
  8
BISUKUGI
100
AcDbLine
 10
1.436299158398014
 20
-22.65204325119703
 30
0.0
 11
1.436299158398014
 21
-20.44367334071285
 31
0.0
  0
LINE
  5
299C
330
2985
100
AcDbEntity
  8
BISUKUGI
100
AcDbLine
 10
1.436299158398014
 20
-19.33544750652072
 30
0.0
 11
1.436299158398014
 21
-17.12707759603654
 31
0.0
  0
LINE
  5
299D
330
2985
100
AcDbEntity
  8
BISUKUGI
100
AcDbLine
 10
-1.436041267130804
 20
-23.78015644655534
 30
0.0
 11
-1.436041267130804
 21
-21.57178653606388
 31
0.0
  0
LINE
  5
299E
330
2985
100
AcDbEntity
  8
BISUKUGI
100
AcDbLine
 10
-1.436041267130804
 20
-20.46356070187176
 30
0.0
 11
-1.436041267130804
 21
-18.25519079138757
 31
0.0
  0
LINE
  5
299F
330
2985
100
AcDbEntity
  8
BISUKUGI
100
AcDbLine
 10
2.400128945631422
 20
-23.20851063830923
 30
0.0
 11
1.436299158398014
 21
-22.65204325119703
 31
0.0
  0
LINE
  5
29A0
330
2985
100
AcDbEntity
  8
BISUKUGI
100
AcDbLine
 10
1.436299158398014
 20
-22.65204325119703
 30
0.0
 11
-1.436041267130804
 21
-23.78015644654806
 31
0.0
  0
LINE
  5
29A1
330
2985
100
AcDbEntity
  8
BISUKUGI
100
AcDbLine
 10
-1.436041267130804
 20
-23.78015644654806
 30
0.0
 11
-2.399871054367849
 21
-24.33191489362798
 31
0.0
  0
LINE
  5
29A2
330
2985
100
AcDbEntity
  8
BISUKUGI
100
AcDbLine
 10
-2.399871054367849
 20
-24.33191489362798
 30
0.0
 11
-1.436041267130804
 21
-24.88838228074019
 31
0.0
  0
LINE
  5
29A3
330
2985
100
AcDbEntity
  8
BISUKUGI
100
AcDbLine
 10
-1.436041267130804
 20
-24.88838228074019
 30
0.0
 11
1.436299158398014
 21
-23.76026908538916
 31
0.0
  0
LINE
  5
29A4
330
2985
100
AcDbEntity
  8
BISUKUGI
100
AcDbLine
 10
1.436299158398014
 20
-23.76026908538916
 30
0.0
 11
2.400128945631422
 21
-23.20851063830923
 31
0.0
  0
LINE
  5
29A5
330
2985
100
AcDbEntity
  8
BISUKUGI
100
AcDbLine
 10
2.400128945631422
 20
-23.20851063830923
 30
0.0
 11
-2.399871054367849
 21
-24.33191489362798
 31
0.0
  0
LINE
  5
29A6
330
2985
100
AcDbEntity
  8
BISUKUGI
100
AcDbLine
 10
-1.436041267130804
 20
-27.09675219123165
 30
0.0
 11
-1.436041267130804
 21
-24.88838228074019
 31
0.0
  0
LINE
  5
29A7
330
2985
100
AcDbEntity
  8
BISUKUGI
100
AcDbLine
 10
1.436299158398014
 20
-25.96863899588061
 30
0.0
 11
1.436299158398014
 21
-23.76026908538916
 31
0.0
  0
LINE
  5
29A8
330
2985
100
AcDbEntity
  8
BISUKUGI
100
AcDbLine
 10
2.400128945631422
 20
-26.52510638299282
 30
0.0
 11
1.436299158398014
 21
-25.96863899588061
 31
0.0
  0
LINE
  5
29A9
330
2985
100
AcDbEntity
  8
BISUKUGI
100
AcDbLine
 10
1.436299158398014
 20
-25.96863899588061
 30
0.0
 11
-1.436041267130804
 21
-27.09675219123165
 31
0.0
  0
LINE
  5
29AA
330
2985
100
AcDbEntity
  8
BISUKUGI
100
AcDbLine
 10
-1.436041267130804
 20
-27.09675219123165
 30
0.0
 11
-2.399871054367849
 21
-27.64851063830429
 31
0.0
  0
LINE
  5
29AB
330
2985
100
AcDbEntity
  8
BISUKUGI
100
AcDbLine
 10
-2.399871054367849
 20
-27.64851063830429
 30
0.0
 11
-1.436041267130804
 21
-28.20497802542377
 31
0.0
  0
LINE
  5
29AC
330
2985
100
AcDbEntity
  8
BISUKUGI
100
AcDbLine
 10
-1.436041267130804
 20
-28.20497802542377
 30
0.0
 11
1.436299158398014
 21
-27.07686483006546
 31
0.0
  0
LINE
  5
29AD
330
2985
100
AcDbEntity
  8
BISUKUGI
100
AcDbLine
 10
1.436299158398014
 20
-27.07686483006546
 30
0.0
 11
2.400128945631422
 21
-26.52510638299282
 31
0.0
  0
LINE
  5
29AE
330
2985
100
AcDbEntity
  8
BISUKUGI
100
AcDbLine
 10
2.400128945631422
 20
-26.52510638299282
 30
0.0
 11
-2.399871054367849
 21
-27.64851063830429
 31
0.0
  0
LINE
  5
29AF
330
2985
100
AcDbEntity
  8
BISUKUGI
100
AcDbLine
 10
1.436299158398014
 20
-29.28523474055692
 30
0.0
 11
1.436299158398014
 21
-27.07686483006546
 31
0.0
  0
LINE
  5
29B0
330
2985
100
AcDbEntity
  8
BISUKUGI
100
AcDbLine
 10
0.9632929476351819
 20
-43.17446808511886
 30
0.0
 11
0.6236161628980881
 21
-42.97835560201201
 31
0.0
  0
LINE
  5
29B1
330
2985
100
AcDbEntity
  8
BISUKUGI
100
AcDbLine
 10
2.400128945631422
 20
-39.79148936170532
 30
0.0
 11
1.436299158398014
 21
-39.23502197459311
 31
0.0
  0
LINE
  5
29B2
330
2985
100
AcDbEntity
  8
BISUKUGI
100
AcDbLine
 10
1.436299158398014
 20
-39.23502197459311
 30
0.0
 11
-1.436041267130804
 21
-40.36313516994414
 31
0.0
  0
LINE
  5
29B3
330
2985
100
AcDbEntity
  8
BISUKUGI
100
AcDbLine
 10
-1.436041267130804
 20
-40.36313516994414
 30
0.0
 11
-2.399871054367849
 21
-40.91489361701678
 31
0.0
  0
LINE
  5
29B4
330
2985
100
AcDbEntity
  8
BISUKUGI
100
AcDbLine
 10
-2.399871054367849
 20
-40.91489361701678
 30
0.0
 11
-1.436041267130804
 21
-41.47136100413627
 31
0.0
  0
LINE
  5
29B5
330
2985
100
AcDbEntity
  8
BISUKUGI
100
AcDbLine
 10
-1.436041267130804
 20
-41.47136100413627
 30
0.0
 11
1.436299158398014
 21
-40.34324780877796
 31
0.0
  0
LINE
  5
29B6
330
2985
100
AcDbEntity
  8
BISUKUGI
100
AcDbLine
 10
1.436299158398014
 20
-40.34324780877796
 30
0.0
 11
2.400128945631422
 21
-39.79148936170532
 31
0.0
  0
LINE
  5
29B7
330
2985
100
AcDbEntity
  8
BISUKUGI
100
AcDbLine
 10
2.400128945631422
 20
-39.79148936170532
 30
0.0
 11
-2.399871054367849
 21
-40.91489361701678
 31
0.0
  0
LINE
  5
29B8
330
2985
100
AcDbEntity
  8
BISUKUGI
100
AcDbLine
 10
2.400128945631422
 20
-36.47489361702174
 30
0.0
 11
-2.399871054367849
 21
-37.59829787234048
 31
0.0
  0
LINE
  5
29B9
330
2985
100
AcDbEntity
  8
BISUKUGI
100
AcDbLine
 10
1.436299158398014
 20
-37.02665206410165
 30
0.0
 11
2.400128945631422
 21
-36.47489361702174
 31
0.0
  0
LINE
  5
29BA
330
2985
100
AcDbEntity
  8
BISUKUGI
100
AcDbLine
 10
-1.436041267130804
 20
-38.15476525945269
 30
0.0
 11
1.436299158398014
 21
-37.02665206410165
 31
0.0
  0
LINE
  5
29BB
330
2985
100
AcDbEntity
  8
BISUKUGI
100
AcDbLine
 10
-2.399871054367849
 20
-37.59829787234048
 30
0.0
 11
-1.436041267130804
 21
-38.15476525945269
 31
0.0
  0
LINE
  5
29BC
330
2985
100
AcDbEntity
  8
BISUKUGI
100
AcDbLine
 10
-1.436041267130804
 20
-37.04653942526056
 30
0.0
 11
-2.399871054367849
 21
-37.59829787234048
 31
0.0
  0
LINE
  5
29BD
330
2985
100
AcDbEntity
  8
BISUKUGI
100
AcDbLine
 10
1.436299158398014
 20
-35.91842622990953
 30
0.0
 11
-1.436041267130804
 21
-37.04653942526056
 31
0.0
  0
LINE
  5
29BE
330
2985
100
AcDbEntity
  8
BISUKUGI
100
AcDbLine
 10
2.400128945631422
 20
-36.47489361702174
 30
0.0
 11
1.436299158398014
 21
-35.91842622990953
 31
0.0
  0
LINE
  5
29BF
330
2985
100
AcDbEntity
  8
BISUKUGI
100
AcDbLine
 10
2.400128945631422
 20
-33.15829787234543
 30
0.0
 11
1.436299158398014
 21
-32.60183048523322
 31
0.0
  0
LINE
  5
29C0
330
2985
100
AcDbEntity
  8
BISUKUGI
100
AcDbLine
 10
1.436299158398014
 20
-32.60183048523322
 30
0.0
 11
-1.436041267130804
 21
-33.72994368058426
 31
0.0
  0
LINE
  5
29C1
330
2985
100
AcDbEntity
  8
BISUKUGI
100
AcDbLine
 10
-1.436041267130804
 20
-33.72994368058426
 30
0.0
 11
-2.399871054367849
 21
-34.28170212766417
 31
0.0
  0
LINE
  5
29C2
330
2985
100
AcDbEntity
  8
BISUKUGI
100
AcDbLine
 10
-2.399871054367849
 20
-34.28170212766417
 30
0.0
 11
-1.436041267130804
 21
-34.83816951477638
 31
0.0
  0
LINE
  5
29C3
330
2985
100
AcDbEntity
  8
BISUKUGI
100
AcDbLine
 10
1.436299158398014
 20
-33.71005631942535
 30
0.0
 11
2.400128945631422
 21
-33.15829787234543
 31
0.0
  0
LINE
  5
29C4
330
2985
100
AcDbEntity
  8
BISUKUGI
100
AcDbLine
 10
2.400128945631422
 20
-33.15829787234543
 30
0.0
 11
-2.399871054367849
 21
-34.28170212766417
 31
0.0
  0
LINE
  5
29C5
330
2985
100
AcDbEntity
  8
BISUKUGI
100
AcDbLine
 10
2.400128945631422
 20
-29.84170212766912
 30
0.0
 11
1.436299158398014
 21
-29.28523474055692
 31
0.0
  0
LINE
  5
29C6
330
2985
100
AcDbEntity
  8
BISUKUGI
100
AcDbLine
 10
1.436299158398014
 20
-29.28523474055692
 30
0.0
 11
-1.436041267130804
 21
-30.41334793590795
 31
0.0
  0
LINE
  5
29C7
330
2985
100
AcDbEntity
  8
BISUKUGI
100
AcDbLine
 10
-1.436041267130804
 20
-30.41334793590795
 30
0.0
 11
-2.399871054367849
 21
-30.96510638298787
 31
0.0
  0
LINE
  5
29C8
330
2985
100
AcDbEntity
  8
BISUKUGI
100
AcDbLine
 10
-2.399871054367849
 20
-30.96510638298787
 30
0.0
 11
-1.436041267130804
 21
-31.52157377010008
 31
0.0
  0
LINE
  5
29C9
330
2985
100
AcDbEntity
  8
BISUKUGI
100
AcDbLine
 10
-1.436041267130804
 20
-31.52157377010008
 30
0.0
 11
1.436299158398014
 21
-30.39346057474904
 31
0.0
  0
LINE
  5
29CA
330
2985
100
AcDbEntity
  8
BISUKUGI
100
AcDbLine
 10
1.436299158398014
 20
-30.39346057474904
 30
0.0
 11
2.400128945631422
 21
-29.84170212766912
 31
0.0
  0
LINE
  5
29CB
330
2985
100
AcDbEntity
  8
BISUKUGI
100
AcDbLine
 10
2.400128945631422
 20
-29.84170212766912
 30
0.0
 11
-2.399871054367849
 21
-30.96510638298787
 31
0.0
  0
LINE
  5
29CC
330
2985
100
AcDbEntity
  8
BISUKUGI
100
AcDbLine
 10
1.436299158398014
 20
-39.23502197459311
 30
0.0
 11
1.436299158398014
 21
-37.02665206410165
 31
0.0
  0
LINE
  5
29CD
330
2985
100
AcDbEntity
  8
BISUKUGI
100
AcDbLine
 10
1.436299158398014
 20
-35.91842622990953
 30
0.0
 11
1.436299158398014
 21
-33.71005631942535
 31
0.0
  0
LINE
  5
29CE
330
2985
100
AcDbEntity
  8
BISUKUGI
100
AcDbLine
 10
-1.436041267130804
 20
-40.36313516994414
 30
0.0
 11
-1.436041267130804
 21
-38.15476525945269
 31
0.0
  0
LINE
  5
29CF
330
2985
100
AcDbEntity
  8
BISUKUGI
100
AcDbLine
 10
1.436299158398014
 20
-40.34324780877796
 30
0.0
 11
0.6236161628980881
 21
-42.97835560201201
 31
0.0
  0
LINE
  5
29D0
330
2985
100
AcDbEntity
  8
BISUKUGI
100
AcDbLine
 10
1.436299158398014
 20
-32.60183048523322
 30
0.0
 11
1.436299158398014
 21
-30.39346057474904
 31
0.0
  0
LINE
  5
29D1
330
2985
100
AcDbEntity
  8
BISUKUGI
100
AcDbLine
 10
-1.436041267130804
 20
-37.04653942526784
 30
0.0
 11
-1.436041267130804
 21
-34.83816951477638
 31
0.0
  0
LINE
  5
29D2
330
2985
100
AcDbEntity
  8
BISUKUGI
100
AcDbLine
 10
-1.436041267130804
 20
-33.72994368058426
 30
0.0
 11
-1.436041267130804
 21
-31.52157377010008
 31
0.0
  0
LINE
  5
29D3
330
2985
100
AcDbEntity
  8
BISUKUGI
100
AcDbLine
 10
-1.436041267130804
 20
-30.41334793590795
 30
0.0
 11
-1.436041267130804
 21
-28.20497802542377
 31
0.0
  0
LINE
  5
29D4
330
2985
100
AcDbEntity
  8
BISUKUGI
100
AcDbLine
 10
-1.436041267130804
 20
-34.83816951477638
 30
0.0
 11
1.436299158398014
 21
-33.71005631942535
 31
0.0
  0
LINE
  5
29D5
330
2985
100
AcDbEntity
  8
BISUKUGI
100
AcDbLine
 10
-1.710509352237295
 20
-0.5799999999944703
 30
0.0
 11
-1.710509352248209
 21
-4.369333728718629
 31
0.0
  0
LINE
  5
29D6
330
2985
100
AcDbEntity
  8
BISUKUGI
100
AcDbLine
 10
1.710767243504506
 20
-3.753191489377059
 30
0.0
 11
-1.436041267130804
 21
-4.212210462334041
 31
0.0
  0
LINE
  5
29D7
330
2985
100
AcDbEntity
  8
BISUKUGI
100
AcDbLine
 10
1.436299158398014
 20
-9.385660272484528
 30
0.0
 11
1.436299158398014
 21
-7.177290361993073
 31
0.0
  0
LINE
  5
29D8
330
2985
100
AcDbEntity
  8
BISUKUGI
100
AcDbLine
 10
-1.436041267130804
 20
-10.51377346783556
 30
0.0
 11
-1.436041267130804
 21
-8.305403557351382
 31
0.0
  0
LINE
  5
29D9
330
2985
100
AcDbEntity
  8
BISUKUGI
100
AcDbLine
 10
1.436299158398014
 20
-4.828706952874199
 30
0.0
 11
1.436299158398014
 21
-6.069064527808222
 31
0.0
  0
LINE
  5
29DA
330
2985
100
AcDbEntity
  8
BISUKUGI
100
AcDbLine
 10
1.710767243500868
 20
-3.75319148939161
 30
0.0
 11
1.436299158398014
 21
-4.828706952874199
 31
0.0
  0
LINE
  5
29DB
330
2985
100
AcDbEntity
  8
BISUKUGI
100
AcDbLine
 10
2.400128945631422
 20
-6.625531914920429
 30
0.0
 11
-2.399871054367849
 21
-7.7489361702319
 31
0.0
  0
LINE
  5
29DC
330
2985
100
AcDbEntity
  8
BISUKUGI
100
AcDbLine
 10
1.436299158398014
 20
-7.177290361993073
 30
0.0
 11
2.400128945631422
 21
-6.625531914920429
 31
0.0
  0
LINE
  5
29DD
330
2985
100
AcDbEntity
  8
BISUKUGI
100
AcDbLine
 10
-1.436041267130804
 20
-8.305403557351382
 30
0.0
 11
1.436299158398014
 21
-7.177290361993073
 31
0.0
  0
LINE
  5
29DE
330
2985
100
AcDbEntity
  8
BISUKUGI
100
AcDbLine
 10
-2.399871054367849
 20
-7.7489361702319
 30
0.0
 11
-1.436041267130804
 21
-8.305403557351382
 31
0.0
  0
LINE
  5
29DF
330
2985
100
AcDbEntity
  8
BISUKUGI
100
AcDbLine
 10
-1.436041267130804
 20
-7.197177723159256
 30
0.0
 11
-2.399871054367849
 21
-7.7489361702319
 31
0.0
  0
LINE
  5
29E0
330
2985
100
AcDbEntity
  8
BISUKUGI
100
AcDbLine
 10
1.436299158398014
 20
-6.069064527808222
 30
0.0
 11
-1.436041267130804
 21
-7.197177723159256
 31
0.0
  0
LINE
  5
29E1
330
2985
100
AcDbEntity
  8
BISUKUGI
100
AcDbLine
 10
2.400128945631422
 20
-6.625531914920429
 30
0.0
 11
1.436299158398014
 21
-6.069064527808222
 31
0.0
  0
LINE
  5
29E2
330
2985
100
AcDbEntity
  8
BISUKUGI
100
AcDbLine
 10
2.400128945631422
 20
-9.942127659596735
 30
0.0
 11
-2.399871054367849
 21
-11.06553191491548
 31
0.0
  0
LINE
  5
29E3
330
2985
100
AcDbEntity
  8
BISUKUGI
100
AcDbLine
 10
1.436299158398014
 20
-10.49388610667665
 30
0.0
 11
2.400128945631422
 21
-9.942127659596735
 31
0.0
  0
LINE
  5
29E4
330
2985
100
AcDbEntity
  8
BISUKUGI
100
AcDbLine
 10
-1.436041267130804
 20
-11.62199930202769
 30
0.0
 11
1.436299158398014
 21
-10.49388610667665
 31
0.0
  0
LINE
  5
29E5
330
2985
100
AcDbEntity
  8
BISUKUGI
100
AcDbLine
 10
-2.399871054367849
 20
-11.06553191491548
 30
0.0
 11
-1.436041267130804
 21
-11.62199930202769
 31
0.0
  0
LINE
  5
29E6
330
2985
100
AcDbEntity
  8
BISUKUGI
100
AcDbLine
 10
-1.436041267130804
 20
-10.51377346783556
 30
0.0
 11
-2.399871054367849
 21
-11.06553191491548
 31
0.0
  0
LINE
  5
29E7
330
2985
100
AcDbEntity
  8
BISUKUGI
100
AcDbLine
 10
1.436299158398014
 20
-9.385660272484528
 30
0.0
 11
-1.436041267130804
 21
-10.51377346783556
 31
0.0
  0
LINE
  5
29E8
330
2985
100
AcDbEntity
  8
BISUKUGI
100
AcDbLine
 10
2.400128945631422
 20
-9.942127659596735
 30
0.0
 11
1.436299158398014
 21
-9.385660272484528
 31
0.0
  0
LINE
  5
29E9
330
2985
100
AcDbEntity
  8
BISUKUGI
100
AcDbLine
 10
-1.436041267130804
 20
-4.828706952874199
 30
0.0
 11
-1.972211479901034
 21
-4.51914893619687
 31
0.0
  0
LINE
  5
29EA
330
2985
100
AcDbEntity
  8
BISUKUGI
100
AcDbLine
 10
-1.972211479901034
 20
-4.51914893619687
 30
0.0
 11
-1.436041267130804
 21
-4.212210462334041
 31
0.0
  0
LINE
  5
29EB
330
2985
100
AcDbEntity
  8
BISUKUGI
100
AcDbLine
 10
1.710767243504506
 20
-3.75319148939161
 30
0.0
 11
1.436299158398014
 21
-3.910314755776198
 31
0.0
  0
LINE
  5
29EC
330
2985
100
AcDbEntity
  8
BISUKUGI
100
AcDbLine
 10
1.436299158398014
 20
-3.910314755776198
 30
0.0
 11
-1.436041267130804
 21
-4.828706952874199
 31
0.0
  0
LINE
  5
29ED
330
2985
100
AcDbEntity
  8
BISUKUGI
100
AcDbLine
 10
1.710767243500868
 20
-3.75319148939161
 30
0.0
 11
-1.972211479901034
 21
-4.51914893619687
 31
0.0
  0
LINE
  5
29EE
330
2985
100
AcDbEntity
  8
BISUKUGI
100
AcDbLine
 10
-1.436041267130804
 20
-7.197177723159256
 30
0.0
 11
-1.436041267130804
 21
-4.828706952874199
 31
0.0
  0
LINE
  5
29EF
330
2985
100
AcDbEntity
  8
BISUKUGI
100
AcDbLine
 10
1.710767243504506
 20
-0.5799999999944703
 30
0.0
 11
1.710767243489954
 21
-3.753191489377059
 31
0.0
  0
LINE
  5
29F0
330
2985
100
AcDbEntity
  8
BISUKUGI
100
AcDbLine
 10
-1.710509352237295
 20
-0.5799999999944703
 30
0.0
 11
1.710767243504506
 21
-0.5799999999944703
 31
0.0
  0
LINE
  5
29F1
330
2985
100
AcDbEntity
  8
BISUKUGI
100
AcDbLine
 10
3.750930610636828
 20
1.0
 30
0.0
 11
-3.717969113518165
 21
1.000000000000909
 31
0.0
  0
LINE
  5
29F2
330
2985
100
AcDbEntity
  8
BISUKUGI
100
AcDbLine
 10
3.750128945633605
 20
0.0
 30
0.0
 11
-3.750128945633605
 21
0.0
 31
0.0
  0
LINE
  5
29F3
330
2985
100
AcDbEntity
  8
BISUKUGI
100
AcDbLine
 10
-1.710509352237295
 20
-0.5799999999944703
 30
0.0
 11
-2.580509352236276
 21
0.0
 31
0.0
  0
LINE
  5
29F4
330
2985
100
AcDbEntity
  8
BISUKUGI
100
AcDbLine
 10
1.710767243504506
 20
-0.5799999999944703
 30
0.0
 11
2.580767243503487
 21
0.0
 31
0.0
  0
LINE
  5
29F5
330
2985
100
AcDbEntity
  8
BISUKUGI
100
AcDbLine
 10
-1.436041267130804
 20
-13.83036921251187
 30
0.0
 11
-1.436041267130804
 21
-11.62199930202769
 31
0.0
  0
LINE
  5
29F6
330
2985
100
AcDbEntity
  8
BISUKUGI
100
AcDbLine
 10
1.436299158398014
 20
-12.70225601716811
 30
0.0
 11
1.436299158398014
 21
-10.49388610667665
 31
0.0
  0
LINE
  5
29F7
330
2985
100
AcDbEntity
  8
BISUKUGI
100
AcDbLine
 10
1.436299158398014
 20
-13.81048185135296
 30
0.0
 11
2.400128945631422
 21
-13.25872340427304
 31
0.0
  0
LINE
  5
29F8
330
2985
100
AcDbEntity
  8
BISUKUGI
100
AcDbLine
 10
1.436299158398014
 20
-12.70225601716811
 30
0.0
 11
-1.436041267130804
 21
-13.83036921251187
 31
0.0
  0
LINE
  5
29F9
330
2985
100
AcDbEntity
  8
BISUKUGI
100
AcDbLine
 10
2.400128945631422
 20
-13.25872340427304
 30
0.0
 11
1.436299158398014
 21
-12.70225601716811
 31
0.0
  0
LINE
  5
29FA
330
2985
100
AcDbEntity
  8
BISUKUGI
100
AcDbLine
 10
-0.3748271632616706
 20
-43.94042553192412
 30
0.0
 11
0.9632929476351819
 21
-43.17446808511886
 31
0.0
  0
LINE
  5
29FB
330
2985
100
AcDbEntity
  8
BISUKUGI
100
AcDbLine
 10
0.6236161628980881
 20
-42.97835560201201
 30
0.0
 11
-0.3748271632616706
 21
-43.94042553192412
 31
0.0
  0
LINE
  5
29FC
330
2985
100
AcDbEntity
  8
BISUKUGI
100
AcDbLine
 10
0.0001289456336053
 20
-45.0
 30
0.0
 11
-1.436041267130804
 21
-41.44364442809456
 31
0.0
  0
LINE
  5
29FD
330
2985
100
AcDbEntity
  8
BISUKUGI
100
AcDbLine
 10
0.477347163435752
 20
-43.4526298055207
 30
0.0
 11
0.0001289456336053
 21
-45.0
 31
0.0
  0
ARC
  5
29FE
330
2985
100
AcDbEntity
  8
BISUKUGI
100
AcDbCircle
 10
-3.750128945633605
 20
0.5
 30
0.0
 40
0.5
100
AcDbArc
 50
86.31939162205268
 51
270.0
  0
ARC
  5
29FF
330
2985
100
AcDbEntity
  8
BISUKUGI
100
AcDbCircle
 10
3.750128945633605
 20
0.5
 30
0.0
 40
0.5
100
AcDbArc
 50
270.0
 51
90.0
  0
ENDBLK
  5
2A00
330
2985
100
AcDbEntity
  8
0
100
AcDbBlockEnd
  0
ENDSEC
  0
SECTION
  2
ENTITIES
  0
LINE
  5
3B0
330
1F
100
AcDbEntity
  8
WAKU
100
AcDbLine
 10
29.99999999999909
 20
42.0
 30
0.0
 11
809.999999999999
 21
42.0
 31
0.0
  0
LINE
  5
3B1
330
1F
100
AcDbEntity
  8
WAKU
100
AcDbLine
 10
29.99999999999909
 20
571.9999999999989
 30
0.0
 11
29.99999999999909
 21
22.0
 31
0.0
  0
MTEXT
  5
3B2
330
1F
100
AcDbEntity
  8
WAKU
100
AcDbMText
 10
204.9999999999991
 20
32.00000000000091
 30
0.0
 40
5.0
 41
128.4454167023495
 46
0.0
 71
     5
 72
     5
  1
アイジーサイディング参考ディテール
  7
WAKU
 73
     1
 44
1.0
  0
LINE
  5
3B3
330
1F
100
AcDbEntity
  8
WAKU
100
AcDbLine
 10
127.9999999999991
 20
40.0
 30
0.0
 11
127.9999999999991
 21
24.0
 31
0.0
  0
LINE
  5
3B4
330
1F
100
AcDbEntity
  8
WAKU
100
AcDbLine
 10
31.99999999999909
 20
40.0
 30
0.0
 11
127.9999999999991
 21
40.0
 31
0.0
  0
LINE
  5
3B5
330
1F
100
AcDbEntity
  8
WAKU
100
AcDbLine
 10
129.9999999999991
 20
42.0
 30
0.0
 11
129.9999999999991
 21
22.0
 31
0.0
  0
MTEXT
  5
3B6
330
1F
100
AcDbEntity
  8
WAKU
100
AcDbMText
 10
79.99999999999909
 20
32.00000000000091
 30
0.0
 40
6.0
 41
87.09146927549227
 46
0.0
 71
     5
 72
     5
  1
アイジー工業株式会社
  7
WAKU
 73
     1
 44
1.0
  0
LINE
  5
3B7
330
1F
100
AcDbEntity
  8
WAKU
100
AcDbLine
 10
31.99999999999909
 20
40.0
 30
0.0
 11
31.99999999999909
 21
24.0
 31
0.0
  0
LINE
  5
3B8
330
1F
100
AcDbEntity
  8
WAKU
100
AcDbLine
 10
809.999999999999
 20
22.0
 30
0.0
 11
809.999999999999
 21
571.9999999999989
 31
0.0
  0
LINE
  5
3B9
330
1F
100
AcDbEntity
  8
WAKU
100
AcDbLine
 10
31.99999999999909
 20
24.0
 30
0.0
 11
127.9999999999991
 21
24.0
 31
0.0
  0
MTEXT
  5
3BA
330
1F
100
AcDbEntity
  8
WAKU
100
AcDbMText
 10
284.9999999999991
 20
32.00000000000091
 30
0.0
 40
5.0
 41
6.550809590298342
 46
0.0
 71
     5
 72
     5
  1
名称
  7
WAKU
 73
     1
 44
1.0
  0
LINE
  5
3BB
330
1F
100
AcDbEntity
  8
WAKU
100
AcDbLine
 10
289.9999999999991
 20
42.0
 30
0.0
 11
289.9999999999991
 21
22.0
 31
0.0
  0
LINE
  5
3BC
330
1F
100
AcDbEntity
  8
WAKU
100
AcDbLine
 10
279.9999999999991
 20
42.0
 30
0.0
 11
279.9999999999991
 21
22.0
 31
0.0
  0
LINE
  5
3BD
330
1F
100
AcDbEntity
  8
WAKU
100
AcDbLine
 10
499.9999999999991
 20
42.0
 30
0.0
 11
499.9999999999991
 21
22.0
 31
0.0
  0
LINE
  5
3BE
330
1F
100
AcDbEntity
  8
WAKU
100
AcDbLine
 10
489.999999999999
 20
22.0
 30
0.0
 11
489.999999999999
 21
42.0
 31
0.0
  0
MTEXT
  5
3BF
330
1F
100
AcDbEntity
  8
WAKU
100
AcDbMText
 10
509.999999999999
 20
32.00000000000091
 30
0.0
 40
5.0
 41
23.63255308467524
 46
0.0
 71
     5
 72
     5
  1
mm
  7
WAKU
 73
     1
 44
1.0
  0
MTEXT
  5
3C0
330
1F
100
AcDbEntity
  8
WAKU
100
AcDbMText
 10
549.9999999999991
 20
32.00000000000091
 30
0.0
 40
5.0
 41
39.84429663475305
 46
0.0
 71
     5
 72
     5
  1
1/2（A3）
  7
WAKU
 73
     1
 44
1.0
  0
LINE
  5
3C1
330
1F
100
AcDbEntity
  8
WAKU
100
AcDbLine
 10
529.999999999999
 20
42.0
 30
0.0
 11
529.999999999999
 21
22.0
 31
0.0
  0
LINE
  5
3C2
330
1F
100
AcDbEntity
  8
WAKU
100
AcDbLine
 10
519.9999999999991
 20
42.0
 30
0.0
 11
519.9999999999991
 21
22.0
 31
0.0
  0
LINE
  5
3C3
330
1F
100
AcDbEntity
  8
WAKU
100
AcDbLine
 10
569.9999999999991
 20
42.0
 30
0.0
 11
569.9999999999991
 21
22.0
 31
0.0
  0
LINE
  5
3C4
330
1F
100
AcDbEntity
  8
WAKU
100
AcDbLine
 10
579.999999999999
 20
42.0
 30
0.0
 11
579.999999999999
 21
22.0
 31
0.0
  0
LINE
  5
3C5
330
1F
100
AcDbEntity
  8
WAKU
  6
DASHED2
100
AcDbLine
 10
629.999999999999
 20
32.00000000000091
 30
0.0
 11
809.999999999999
 21
32.00000000000091
 31
0.0
  0
LINE
  5
3C6
330
1F
100
AcDbEntity
  8
WAKU
100
AcDbLine
 10
629.999999999999
 20
42.0
 30
0.0
 11
629.999999999999
 21
22.0
 31
0.0
  0
LINE
  5
3C7
330
1F
100
AcDbEntity
  8
WAKU
100
AcDbLine
 10
619.9999999999991
 20
42.0
 30
0.0
 11
619.9999999999991
 21
22.0
 31
0.0
  0
MTEXT
  5
3C8
330
1F
100
AcDbEntity
  8
WAKU
100
AcDbMText
 10
494.9999999999991
 20
32.00000000000091
 30
0.0
 40
5.0
 41
6.550809590298342
 46
0.0
 71
     5
 72
     5
  1
単位
  7
WAKU
 73
     1
 44
1.0
  0
MTEXT
  5
3C9
330
1F
100
AcDbEntity
  8
WAKU
100
AcDbMText
 10
524.9999999999991
 20
32.00000000000091
 30
0.0
 40
5.0
 41
6.550809590298342
 46
0.0
 71
     5
 72
     5
  1
縮尺
  7
WAKU
 73
     1
 44
1.0
  0
MTEXT
  5
3CA
330
1F
100
AcDbEntity
  8
WAKU
100
AcDbMText
 10
571.7245952048497
 20
32.00000000000091
 30
0.0
 40
5.0
 41
6.550809590298342
 46
0.0
 71
     4
 72
     5
  1
図番
  7
WAKU
 73
     1
 44
1.0
  0
MTEXT
  5
3CB
330
1F
100
AcDbEntity
  8
WAKU
100
AcDbMText
 10
624.9999999999991
 20
32.00000000000091
 30
0.0
 40
5.0
 41
6.550809590298342
 46
0.0
 71
     5
 72
     5
  1
特記
  7
WAKU
 73
     1
 44
1.0
  0
MTEXT
  5
3D2
330
1F
100
AcDbEntity
  8
WAKU
100
AcDbMText
 10
600.0989578374992
 20
31.99999999999909
 30
0.0
 40
5.0
 41
65.73479306463958
 46
0.0
 71
     5
 72
     5
  1
wy039-06-04
  7
WAKU
 73
     1
 44
1.0
  0
LINE
  5
3FC
330
1F
100
AcDbEntity
  8
WAKU
100
AcDbLine
 10
809.999999999999
 20
571.9999999999989
 30
0.0
 11
29.99999999999909
 21
571.9999999999989
 31
0.0
  0
LINE
  5
402
330
1F
100
AcDbEntity
  8
WAKU
100
AcDbLine
 10
809.999999999999
 20
22.0
 30
0.0
 11
29.99999999999909
 21
22.0
 31
0.0
  0
LWPOLYLINE
  5
454
330
1F
100
AcDbEntity
  8
AM_CL
100
AcDbPolyline
 90
        4
 70
     1
 43
0.0
 10
0.0
 20
0.0000000000002274
 10
840.0
 20
0.0000000000002274
 10
840.0
 20
594.0000000000006
 10
0.0
 20
594.0000000000006
  0
LWPOLYLINE
  5
455
330
1F
100
AcDbEntity
  8
AM_CL
100
AcDbPolyline
 90
        4
 70
     1
 43
0.0
 10
50.0
 20
552.0000000000006
 10
790.0
 20
552.0000000000006
 10
790.0
 20
62.00000000000023
 10
50.0
 20
62.00000000000023
  0
LINE
  5
1B6E
330
1F
100
AcDbEntity
  8
KUTAI
100
AcDbLine
 10
449.8877047142277
 20
388.0543100457878
 30
0.0
 11
506.2490885339393
 21
388.0543100457878
 31
0.0
  0
LINE
  5
1B6F
330
1F
100
AcDbEntity
  8
DOUBUTI
100
AcDbLine
 10
437.8877047142277
 20
352.0543102605905
 30
0.0
 11
419.8877047142278
 21
352.0543102605905
 31
0.0
  0
LINE
  5
1B70
330
1F
100
AcDbEntity
  8
YAKUMONO2
100
AcDbLine
 10
441.2149167301522
 20
287.2159791815018
 30
0.0
 11
440.4673736052727
 21
291.4555069150017
 31
0.0
  0
ARC
  5
1B71
330
1F
100
AcDbEntity
  8
YAKUMONO
100
AcDbCircle
 10
442.3671772194111
 20
327.1870703760676
 30
0.0
 40
0.6499982806241693
100
AcDbArc
 50
94.99983170101765
 51
257.954903543515
  0
ARC
  5
1B72
330
1F
100
AcDbEntity
  8
YAKUMONO2
100
AcDbCircle
 10
442.5877051006327
 20
327.4555069150017
 30
0.0
 40
2.35
100
AcDbArc
 50
90.0
 51
270.0
  0
LINE
  5
1B73
330
1F
100
AcDbEntity
  8
YAKUMONO2
100
AcDbLine
 10
438.2377051006305
 20
331.9555069149999
 30
0.0
 11
438.2377051006269
 21
328.7055069150017
 31
0.0
  0
LINE
  5
1B74
330
1F
100
AcDbEntity
  8
YAKUMONO2
100
AcDbLine
 10
440.8702340165992
 20
287.1552023193187
 30
0.0
 11
440.1226908917169
 21
291.3947300528168
 31
0.0
  0
LINE
  5
1B75
330
1F
100
AcDbEntity
  8
YAKUMONO2
100
AcDbLine
 10
479.1158357142285
 20
332.0617640457883
 30
0.0
 11
439.3595747142289
 21
336.9432190457871
 31
0.0
  0
LINE
  5
1B76
330
1F
100
AcDbEntity
  8
YAKUMONO2
100
AcDbLine
 10
479.1584897142284
 20
332.4091550457877
 30
0.0
 11
439.4022287142288
 21
337.2906100457865
 31
0.0
  0
LINE
  5
1B77
330
1F
100
AcDbEntity
  8
YAKUMONO2
100
AcDbLine
 10
479.237704714229
 20
352.0543100457878
 30
0.0
 11
471.237704714229
 21
352.0543100457878
 31
0.0
  0
LINE
  5
1B78
330
1F
100
AcDbEntity
  8
YAKUMONO2
100
AcDbLine
 10
479.237704714229
 20
352.0543100457878
 30
0.0
 11
471.237704714229
 21
352.0543100457878
 31
0.0
  0
LINE
  5
1B79
330
1F
100
AcDbEntity
  8
YAKUMONO2
100
AcDbLine
 10
480.237704714229
 20
351.0543100457878
 30
0.0
 11
480.237704714229
 21
333.0543100457878
 31
0.0
  0
ARC
  5
1B7A
330
1F
100
AcDbEntity
  8
YAKUMONO2
100
AcDbCircle
 10
479.237704714229
 20
351.0543100457878
 30
0.0
 40
1.0
100
AcDbArc
 50
0.0
 51
90.0
  0
ARC
  5
1B7B
330
1F
100
AcDbEntity
  8
YAKUMONO2
100
AcDbCircle
 10
471.237704714229
 20
351.0543100457878
 30
0.0
 40
1.0
100
AcDbArc
 50
90.0
 51
282.3658599999709
  0
ARC
  5
1B7C
330
1F
100
AcDbEntity
  8
YAKUMONO2
100
AcDbCircle
 10
479.237704714229
 20
333.0543100457878
 30
0.0
 40
1.0
100
AcDbArc
 50
263.0000000000202
 51
0.0
  0
ARC
  5
1B7D
330
1F
100
AcDbEntity
  8
YAKUMONO2
100
AcDbCircle
 10
479.237704714229
 20
333.0543100457878
 30
0.0
 40
0.65
100
AcDbArc
 50
263.0000000000202
 51
0.0
  0
LINE
  5
1B7E
330
1F
100
AcDbEntity
  8
YAKUMONO2
100
AcDbLine
 10
479.8877047142286
 20
333.0543100457878
 30
0.0
 11
479.8877047142286
 21
351.0543100457878
 31
0.0
  0
ARC
  5
1B7F
330
1F
100
AcDbEntity
  8
YAKUMONO2
100
AcDbCircle
 10
479.237704714229
 20
351.0543100457878
 30
0.0
 40
0.65
100
AcDbArc
 50
0.0
 51
90.0
  0
LINE
  5
1B80
330
1F
100
AcDbEntity
  8
YAKUMONO2
100
AcDbLine
 10
479.237704714229
 20
351.7043100457875
 30
0.0
 11
471.237704714229
 21
351.7043100457875
 31
0.0
  0
ARC
  5
1B81
330
1F
100
AcDbEntity
  8
YAKUMONO2
100
AcDbCircle
 10
471.237704714229
 20
351.0543100457878
 30
0.0
 40
0.65
100
AcDbArc
 50
90.0
 51
282.3658599999709
  0
LINE
  5
1B82
330
1F
100
AcDbEntity
  8
YAKUMONO2
100
AcDbLine
 10
471.3769047142286
 20
350.4193900457874
 30
0.0
 11
475.2841047142291
 21
351.2760030457873
 31
0.0
  0
LINE
  5
1B83
330
1F
100
AcDbEntity
  8
YAKUMONO2
100
AcDbLine
 10
471.4518587142284
 20
350.0775100457874
 30
0.0
 11
475.3590587142289
 21
350.9341230457874
 31
0.0
  0
LINE
  5
1B84
330
1F
100
AcDbEntity
  8
YAKUMONO2
100
AcDbLine
 10
475.2841047142291
 20
351.2760030457873
 30
0.0
 11
475.3590587142289
 21
350.9341230457874
 31
0.0
  0
LINE
  5
1B8A
330
1F
100
AcDbEntity
  8
YAKUMONO2
100
AcDbLine
 10
437.8877047142286
 20
269.300673045788
 30
0.0
 11
437.8877047142286
 21
335.9506730457876
 31
0.0
  0
LINE
  5
1B8B
330
1F
100
AcDbEntity
  8
YAKUMONO2
100
AcDbLine
 10
438.2377047142281
 20
335.9506730457876
 30
0.0
 11
438.2377047142281
 21
269.300673045788
 31
0.0
  0
ARC
  5
1B8C
330
1F
100
AcDbEntity
  8
YAKUMONO2
100
AcDbCircle
 10
439.2377047142281
 20
335.9506730457876
 30
0.0
 40
1.0
100
AcDbArc
 50
83.00000000002025
 51
180.0
  0
ARC
  5
1B8D
330
1F
100
AcDbEntity
  8
YAKUMONO2
100
AcDbCircle
 10
439.2377047142281
 20
335.9506730457876
 30
0.0
 40
1.35
100
AcDbArc
 50
83.00000000002025
 51
180.0
  0
TEXT
  5
1B8E
330
1F
100
AcDbEntity
  8
MOJI
100
AcDbText
 10
468.6285840688342
 20
69.73208445496744
 30
0.0
 40
5.0
  1
※ 軒の出が外壁表面から300mm以上の場合は、無しも可。
  7
CAD-DL
100
AcDbText
  0
LINE
  5
1B8F
330
1F
100
AcDbEntity
  8
KUTAI
100
AcDbLine
 10
314.3877047142414
 20
132.654822950634
 30
0.0
 11
314.3877047142414
 21
482.6548229506304
 31
0.0
  0
LINE
  5
1B90
330
1F
100
AcDbEntity
  8
BOUSUISI
100
AcDbLine
 10
419.6377047142296
 20
482.6548229506304
 30
0.0
 11
419.6377047142241
 21
132.654822950634
 31
0.0
  0
LINE
  5
1B91
330
1F
100
AcDbEntity
  8
KUTAI
100
AcDbLine
 10
419.3877047142304
 20
132.654822950634
 30
0.0
 11
419.3877047142259
 21
482.6548229506304
 31
0.0
  0
LINE
  5
1B92
330
1F
100
AcDbEntity
  8
DOUBUTI
100
AcDbLine
 10
437.8877047142268
 20
132.654822950634
 30
0.0
 11
437.8877047142277
 21
352.0543102605905
 31
0.0
  0
LINE
  5
1B93
330
1F
100
AcDbEntity
  8
DOUBUTI
100
AcDbLine
 10
419.8877047142278
 20
352.0543102605905
 30
0.0
 11
419.8877047142268
 21
132.654822950634
 31
0.0
  0
TEXT
  5
1B94
330
1F
100
AcDbEntity
  8
MOJI
100
AcDbText
 10
477.6881928193468
 20
277.9165811787207
 30
0.0
 40
5.0
  1
シーリング材
  7
CAD-DL
100
AcDbText
  0
LINE
  5
1B95
330
1F
100
AcDbEntity
  8
MOJI
100
AcDbLine
 10
465.4195832209122
 20
280.6270968018253
 30
0.0
 11
475.4195832209123
 21
280.6270968018253
 31
0.0
  0
LINE
  5
1B96
330
1F
100
AcDbEntity
  8
MOJI
100
AcDbLine
 10
463.9180550848768
 20
232.9525819760627
 30
0.0
 11
473.9180550848768
 21
232.9525819760627
 31
0.0
  0
LINE
  5
1B97
330
1F
100
AcDbEntity
  8
MOJI
100
AcDbLine
 10
451.4092561422835
 20
304.8019278304937
 30
0.0
 11
465.4195832209122
 21
280.6270968018253
 31
0.0
  0
LINE
  5
1BE3
330
1F
100
AcDbEntity
  8
MOJI
100
AcDbLine
 10
485.1087316574075
 20
334.8685954188775
 30
0.0
 11
495.1087316574075
 21
334.8685954188775
 31
0.0
  0
TEXT
  5
1BE4
330
1F
100
AcDbEntity
  8
MOJI
100
AcDbText
 10
519.2273445452033
 20
319.4573841388471
 30
0.0
 40
5.0
  1
※
  7
CAD-DL
100
AcDbText
  0
LINE
  5
1BE5
330
1F
100
AcDbEntity
  8
KUTAI
100
AcDbLine
 10
419.8877047142286
 20
352.0543100457878
 30
0.0
 11
506.2490885339393
 21
352.0543100457878
 31
0.0
  0
LINE
  5
1BE6
330
1F
100
AcDbEntity
  8
KUTAI
100
AcDbLine
 10
449.8877047142277
 20
358.0543100457878
 30
0.0
 11
506.2490885339393
 21
358.0543100457878
 31
0.0
  0
LINE
  5
1BE7
330
1F
100
AcDbEntity
  8
KUTAI
100
AcDbLine
 10
449.8877047142277
 20
388.0543100457878
 30
0.0
 11
419.8877047142278
 21
358.0543100457878
 31
0.0
  0
LINE
  5
1BE8
330
1F
100
AcDbEntity
  8
KUTAI
100
AcDbLine
 10
419.8877047142278
 20
388.0543100457878
 30
0.0
 11
449.8877047142277
 21
388.0543100457878
 31
0.0
  0
LINE
  5
1BE9
330
1F
100
AcDbEntity
  8
KUTAI
100
AcDbLine
 10
449.8877047142277
 20
388.0543100457878
 30
0.0
 11
449.8877047142277
 21
358.0543100457878
 31
0.0
  0
LINE
  5
1BEA
330
1F
100
AcDbEntity
  8
KUTAI
100
AcDbLine
 10
449.8877047142277
 20
358.0543100457878
 30
0.0
 11
419.8877047142278
 21
358.0543100457878
 31
0.0
  0
LINE
  5
1BEB
330
1F
100
AcDbEntity
  8
KUTAI
100
AcDbLine
 10
419.8877047142278
 20
358.0543100457878
 30
0.0
 11
419.8877047142278
 21
388.0543100457878
 31
0.0
  0
LINE
  5
1BEC
330
1F
100
AcDbEntity
  8
MOJI
100
AcDbLine
 10
480.2377047142281
 20
343.3054615695044
 30
0.0
 11
485.1087316574075
 21
334.8685954188775
 31
0.0
  0
LINE
  5
1BED
330
1F
100
AcDbEntity
  8
MOJI
100
AcDbLine
 10
461.3671790265771
 20
321.7621658701544
 30
0.0
 11
468.2607353725598
 21
309.8221760340755
 31
0.0
  0
TEXT
  5
1BEE
330
1F
100
AcDbEntity
  8
MOJI
100
AcDbText
 10
353.467210059674
 20
359.8984589903564
 30
0.0
 40
5.0
  1
透湿防水シート
  7
CAD-DL
100
AcDbText
  0
TEXT
  5
1BEF
330
1F
100
AcDbEntity
  8
MOJI
100
AcDbText
 10
496.1647132551907
 20
332.2978900707064
 30
0.0
 40
5.0
  1
通気軒見切15-25
  7
CAD-DL
100
AcDbText
  0
LINE
  5
1BF0
330
1F
100
AcDbEntity
  8
MOJI
100
AcDbLine
 10
490.1635055870147
 20
355.1174458710818
 30
0.0
 11
505.2401440484081
 21
381.2309496935602
 31
0.0
  0
TEXT
  5
1BF1
330
1F
100
AcDbEntity
  8
MOJI
100
AcDbText
 10
517.6812223670913
 20
378.7898450350628
 30
0.0
 40
5.0
  1
軒天
  7
CAD-DL
100
AcDbText
  0
LINE
  5
1BF2
330
1F
100
AcDbEntity
  8
MOJI
100
AcDbLine
 10
505.2401440484081
 20
381.2309496935602
 30
0.0
 11
515.2401440484082
 21
381.2309496935602
 31
0.0
  0
LINE
  5
1BF3
330
1F
100
AcDbEntity
  8
MOJI
100
AcDbLine
 10
468.2607353725598
 20
309.8221760340755
 30
0.0
 11
478.2607353725597
 21
309.8221760340755
 31
0.0
  0
LINE
  5
1BF4
330
1F
100
AcDbEntity
  8
MOJI
100
AcDbLine
 10
405.3105503971218
 20
281.2772678643894
 30
0.0
 11
395.3105503971219
 21
281.2772678643894
 31
0.0
  0
LINE
  5
1BF5
330
1F
100
AcDbEntity
  8
MOJI
100
AcDbLine
 10
409.333153530567
 20
361.8963231741097
 30
0.0
 11
419.6377047142268
 21
344.0483169748175
 31
0.0
  0
LINE
  5
1BF6
330
1F
100
AcDbEntity
  8
MOJI
100
AcDbLine
 10
405.3105503971218
 20
281.2772678643894
 30
0.0
 11
423.232790818518
 21
250.2350368690684
 31
0.0
  0
LINE
  5
1BF7
330
1F
100
AcDbEntity
  8
MOJI
100
AcDbLine
 10
409.333153530567
 20
361.8963231741097
 30
0.0
 11
399.3331535305661
 21
361.8963231741097
 31
0.0
  0
LINE
  5
1BF8
330
1F
100
AcDbEntity
  8
MOJI
100
AcDbLine
 10
462.6988688098281
 20
330.5805443714933
 30
0.0
 11
468.6474744876168
 21
320.2772571033718
 31
0.0
  0
LINE
  5
1BF9
330
1F
100
AcDbEntity
  8
MOJI
100
AcDbLine
 10
468.6474744876159
 20
320.2772571033718
 30
0.0
 11
478.6474744876159
 21
320.2772571033718
 31
0.0
  0
TEXT
  5
1BFA
330
1F
100
AcDbEntity
  8
MOJI
100
AcDbText
 10
381.3628164138877
 20
278.9673313179126
 30
0.0
 40
5.0
  1
胴縁
  7
CAD-DL
100
AcDbText
  0
TEXT
  5
1BFB
330
1F
100
AcDbEntity
  8
MOJI
100
AcDbText
 10
479.8781291723671
 20
317.9407316566219
 30
0.0
 40
5.0
  1
シーリング材
  7
CAD-DL
100
AcDbText
  0
LINE
  5
1BFD
330
1F
100
AcDbEntity
  8
KUTAI
100
AcDbLine
 10
419.8877047142278
 20
358.0543100457878
 30
0.0
 11
419.8877047142278
 21
352.0543100457878
 31
0.0
  0
LINE
  5
1C48
330
1F
100
AcDbEntity
  8
YAKUMONO2
100
AcDbLine
 10
438.5877051006327
 20
286.9555069150017
 30
0.0
 11
438.5877051006327
 21
296.3777171640657
 31
0.0
  0
LINE
  5
1C49
330
1F
100
AcDbEntity
  8
YAKUMONO2
100
AcDbLine
 10
438.2377051006305
 20
286.9555069150017
 30
0.0
 11
438.2377051006305
 21
296.3777171640657
 31
0.0
  0
LINE
  5
1C4A
330
1F
100
AcDbEntity
  8
YAKUMONO2
100
AcDbLine
 10
440.1226908917169
 20
291.3947300528168
 30
0.0
 11
440.4673736052727
 21
291.4555069150017
 31
0.0
  0
ARC
  5
1C4B
330
1F
100
AcDbEntity
  8
YAKUMONO2
100
AcDbCircle
 10
439.7377051006342
 20
286.9555069150017
 30
0.0
 40
1.149999999999999
100
AcDbArc
 50
180.0
 51
10.00000000005426
  0
LINE
  5
1C4C
330
1F
100
AcDbEntity
  8
YAKUMONO2
100
AcDbLine
 10
440.8702340165992
 20
287.1552023193187
 30
0.0
 11
440.1226908917169
 21
291.3947300528168
 31
0.0
  0
ARC
  5
1C4D
330
1F
100
AcDbEntity
  8
YAKUMONO2
100
AcDbCircle
 10
439.7377051006342
 20
286.9555069150017
 30
0.0
 40
1.5
100
AcDbArc
 50
180.0
 51
10.00000000005426
  0
ARC
  5
1C4E
330
1F
100
AcDbEntity
  8
YAKUMONO2
100
AcDbCircle
 10
438.9877051006306
 20
328.7055069150017
 30
0.0
 40
0.4
100
AcDbArc
 50
180.0
 51
0.0
  0
ARC
  5
1C4F
330
1F
100
AcDbEntity
  8
YAKUMONO2
100
AcDbCircle
 10
438.9877051006306
 20
328.7055069150017
 30
0.0
 40
0.75
100
AcDbArc
 50
180.0
 51
0.0
  0
LINE
  5
1C50
330
1F
100
AcDbEntity
  8
YAKUMONO
100
AcDbLine
 10
447.3855939489603
 20
325.8169504632485
 30
0.0
 11
447.3051871575125
 21
325.4763117280916
 31
0.0
  0
ARC
  5
1C51
330
1F
100
AcDbEntity
  8
YAKUMONO
100
AcDbCircle
 10
442.367179502643
 20
327.1870712845928
 30
0.0
 40
1.000000503671634
100
AcDbArc
 50
95.00002485597461
 51
257.4819168784819
  0
ARC
  5
1C52
330
1F
100
AcDbEntity
  8
YAKUMONO2
100
AcDbCircle
 10
442.5877051006327
 20
327.4555069150017
 30
0.0
 40
2.0
100
AcDbArc
 50
90.0
 51
270.0
  0
ARC
  5
1C53
330
1F
100
AcDbEntity
  8
YAKUMONO2
100
AcDbCircle
 10
440.3377051006327
 20
322.2055069150017
 30
0.0
 40
2.1
100
AcDbArc
 50
90.0
 51
180.0
  0
ARC
  5
1C54
330
1F
100
AcDbEntity
  8
YAKUMONO2
100
AcDbCircle
 10
440.3377051006327
 20
322.2055069150017
 30
0.0
 40
1.75
100
AcDbArc
 50
90.0
 51
180.0
  0
LINE
  5
1C55
330
1F
100
AcDbEntity
  8
YAKUMONO
100
AcDbLine
 10
442.2315345977777
 20
326.5513826822996
 30
0.0
 11
447.3855939489603
 21
325.8169504632485
 31
0.0
  0
LINE
  5
1C56
330
1F
100
AcDbEntity
  8
YAKUMONO
100
AcDbLine
 10
442.1504316615282
 20
326.2108431449058
 30
0.0
 11
447.3051871575125
 21
325.4763117280916
 31
0.0
  0
ARC
  5
1C57
330
1F
100
AcDbEntity
  8
YAKUMONO
100
AcDbCircle
 10
460.3671759259095
 20
310.0455642257809
 30
0.0
 40
0.6500031006711057
100
AcDbArc
 50
325.000082036763
 51
359.9999579324714
  0
LINE
  5
1C58
330
1F
100
AcDbEntity
  8
YAKUMONO
100
AcDbLine
 10
456.8059498284355
 20
303.8263615260519
 30
0.0
 11
460.899627828433
 21
309.6727385260517
 31
0.0
  0
ARC
  5
1C59
330
1F
100
AcDbEntity
  8
YAKUMONO
100
AcDbCircle
 10
455.867180730589
 20
304.4906028555768
 30
0.0
 40
1.150001723012217
100
AcDbArc
 50
165.0000569035347
 51
324.7180637289855
  0
LINE
  5
1C5A
330
1F
100
AcDbEntity
  8
YAKUMONO
100
AcDbLine
 10
456.2300230265755
 20
311.6403117485395
 30
0.0
 11
456.5680970704497
 21
311.5497251001786
 31
0.0
  0
LINE
  5
1C5B
330
1F
100
AcDbEntity
  8
YAKUMONO
100
AcDbLine
 10
456.5680970704497
 20
311.5497251001786
 30
0.0
 11
454.7563640704474
 21
304.7882441001827
 31
0.0
  0
LINE
  5
1C5C
330
1F
100
AcDbEntity
  8
YAKUMONO
100
AcDbLine
 10
454.4182900265777
 20
304.8788307485363
 30
0.0
 11
456.2300230265755
 21
311.6403117485395
 31
0.0
  0
LINE
  5
1C5D
330
1F
100
AcDbEntity
  8
YAKUMONO
100
AcDbLine
 10
461.1863310265771
 20
309.4719867485407
 30
0.0
 11
457.092653026576
 21
303.6256097485391
 31
0.0
  0
ARC
  5
1C5E
330
1F
100
AcDbEntity
  8
YAKUMONO
100
AcDbCircle
 10
455.8671783990303
 20
304.4906017682631
 30
0.0
 40
1.499999752317159
100
AcDbArc
 50
164.9999811480439
 51
324.7839328068887
  0
ARC
  5
1C5F
330
1F
100
AcDbEntity
  8
YAKUMONO
100
AcDbCircle
 10
460.3671759259132
 20
310.0455642257755
 30
0.0
 40
1.000003100665822
100
AcDbArc
 50
325.00005159022
 51
359.999972656419
  0
ARC
  5
1C60
330
1F
100
AcDbEntity
  8
YAKUMONO2
100
AcDbCircle
 10
456.0877051006327
 20
325.4555069150017
 30
0.0
 40
1.149999999999999
100
AcDbArc
 50
0.0
 51
90.0
  0
ARC
  5
1C61
330
1F
100
AcDbEntity
  8
YAKUMONO2
100
AcDbCircle
 10
456.0877051006327
 20
325.4555069150017
 30
0.0
 40
1.5
100
AcDbArc
 50
270.0
 51
0.0
  0
ARC
  5
1C62
330
1F
100
AcDbEntity
  8
YAKUMONO2
100
AcDbCircle
 10
456.0877051006327
 20
325.4555069150017
 30
0.0
 40
1.5
100
AcDbArc
 50
0.0
 51
90.0
  0
ARC
  5
1C63
330
1F
100
AcDbEntity
  8
YAKUMONO2
100
AcDbCircle
 10
456.0877051006327
 20
325.4555069150017
 30
0.0
 40
1.149999999999999
100
AcDbArc
 50
270.0
 51
0.0
  0
ARC
  5
1C64
330
1F
100
AcDbEntity
  8
YAKUMONO2
100
AcDbCircle
 10
449.7728888591236
 20
325.9555069150017
 30
0.0
 40
1.0
100
AcDbArc
 50
90.0
 51
146.3099324741037
  0
ARC
  5
1C65
330
1F
100
AcDbEntity
  8
YAKUMONO2
100
AcDbCircle
 10
447.8898356576173
 20
326.1055069149995
 30
0.0
 40
0.65
100
AcDbArc
 50
270.0
 51
326.3099324741038
  0
ARC
  5
1C66
330
1F
100
AcDbEntity
  8
YAKUMONO2
100
AcDbCircle
 10
447.8898356576173
 20
326.1055069149995
 30
0.0
 40
1.0
100
AcDbArc
 50
270.0
 51
326.3099324741038
  0
LINE
  5
1C67
330
1F
100
AcDbEntity
  8
YAKUMONO2
100
AcDbLine
 10
448.7218859519571
 20
325.5508067187755
 30
0.0
 11
449.2320561678034
 21
326.3160620425449
 31
0.0
  0
ARC
  5
1C68
330
1F
100
AcDbEntity
  8
YAKUMONO2
100
AcDbCircle
 10
449.7728888591236
 20
325.9555069150017
 30
0.0
 40
0.65
100
AcDbArc
 50
90.0
 51
146.3099324741037
  0
LINE
  5
1C69
330
1F
100
AcDbEntity
  8
YAKUMONO2
100
AcDbLine
 10
448.4306683489348
 20
325.7449517874545
 30
0.0
 11
448.9408385647847
 21
326.5102071112276
 31
0.0
  0
LINE
  5
1C6A
330
1F
100
AcDbEntity
  8
YAKUMONO2
100
AcDbLine
 10
447.8898356576173
 20
325.1055069150031
 30
0.0
 11
442.5877051006327
 21
325.1055069149995
 31
0.0
  0
LINE
  5
1C6B
330
1F
100
AcDbEntity
  8
YAKUMONO2
100
AcDbLine
 10
456.0877051006327
 20
326.6055069149995
 30
0.0
 11
449.7728888591236
 21
326.6055069150032
 31
0.0
  0
LINE
  5
1C6C
330
1F
100
AcDbEntity
  8
YAKUMONO2
100
AcDbLine
 10
456.0877051006372
 20
324.3055069149984
 30
0.0
 11
440.3377051006327
 21
324.3055069149984
 31
0.0
  0
LINE
  5
1C6D
330
1F
100
AcDbEntity
  8
YAKUMONO2
100
AcDbLine
 10
447.8898356576173
 20
325.4555069150017
 30
0.0
 11
442.5877051006355
 21
325.4555069150017
 31
0.0
  0
LINE
  5
1C6E
330
1F
100
AcDbEntity
  8
YAKUMONO2
100
AcDbLine
 10
456.0877051006327
 20
326.9555069150017
 30
0.0
 11
449.7728888591236
 21
326.9555069150017
 31
0.0
  0
LINE
  5
1C6F
330
1F
100
AcDbEntity
  8
YAKUMONO2
100
AcDbLine
 10
456.0877051006327
 20
323.9555069150017
 30
0.0
 11
440.3377051006373
 21
323.9555069150017
 31
0.0
  0
LINE
  5
1C70
330
1F
100
AcDbEntity
  8
YAKUMONO
100
AcDbLine
 10
461.0171790265785
 20
310.0455637485381
 30
0.0
 11
461.0171790265785
 21
331.490601748538
 31
0.0
  0
LINE
  5
1C71
330
1F
100
AcDbEntity
  8
YAKUMONO
100
AcDbLine
 10
461.3671790265771
 20
331.490601748538
 30
0.0
 11
461.3671790265771
 21
310.0455637485381
 31
0.0
  0
ARC
  5
1C72
330
1F
100
AcDbEntity
  8
YAKUMONO
100
AcDbCircle
 10
459.8671790265771
 20
331.490601748538
 30
0.0
 40
1.150000000001455
100
AcDbArc
 50
0.0
 51
180.0
  0
ARC
  5
1C73
330
1F
100
AcDbEntity
  8
YAKUMONO
100
AcDbCircle
 10
459.8671790265771
 20
331.490601748538
 30
0.0
 40
1.5
100
AcDbArc
 50
0.0
 51
180.0
  0
ARC
  5
1C74
330
1F
100
AcDbEntity
  8
YAKUMONO2
100
AcDbCircle
 10
454.3160988351965
 20
330.8055069149984
 30
0.0
 40
0.65
100
AcDbArc
 50
270.0
 51
335.9369022976018
  0
LINE
  5
1C75
330
1F
100
AcDbEntity
  8
YAKUMONO2
100
AcDbLine
 10
455.2291958150854
 20
330.3977644652702
 30
0.0
 11
455.6876435737576
 21
331.4244107321908
 31
0.0
  0
LINE
  5
1C76
330
1F
100
AcDbEntity
  8
YAKUMONO2
100
AcDbLine
 10
454.9096118721244
 20
330.5404743226761
 30
0.0
 11
455.368059630794
 21
331.5671205895949
 31
0.0
  0
LINE
  5
1C77
330
1F
100
AcDbEntity
  8
YAKUMONO
100
AcDbLine
 10
457.8837592109884
 20
329.1407634712857
 30
0.0
 11
442.3105280384998
 21
327.8345953833984
 31
0.0
  0
ARC
  5
1C78
330
1F
100
AcDbEntity
  8
YAKUMONO
100
AcDbCircle
 10
457.867179026577
 20
329.990601748538
 30
0.0
 40
0.8500000000003636
100
AcDbArc
 50
271.1176880506723
 51
0.0
  0
LINE
  5
1C79
330
1F
100
AcDbEntity
  8
YAKUMONO
100
AcDbLine
 10
458.7171790265756
 20
331.490601748538
 30
0.0
 11
458.7171790265756
 21
329.990601748538
 31
0.0
  0
LINE
  5
1C7A
330
1F
100
AcDbEntity
  8
YAKUMONO
100
AcDbLine
 10
458.367179026577
 20
329.990601748538
 30
0.0
 11
458.367179026577
 21
331.490601748538
 31
0.0
  0
ARC
  5
1C7B
330
1F
100
AcDbEntity
  8
YAKUMONO
100
AcDbCircle
 10
457.867179026577
 20
329.990601748538
 30
0.0
 40
0.5
100
AcDbArc
 50
270.0
 51
0.0
  0
ARC
  5
1C7C
330
1F
100
AcDbEntity
  8
YAKUMONO2
100
AcDbCircle
 10
456.7377051006296
 20
330.9555069150017
 30
0.0
 40
1.149999999999999
100
AcDbArc
 50
270.0
 51
155.9369022976017
  0
ARC
  5
1C7D
330
1F
100
AcDbEntity
  8
YAKUMONO2
100
AcDbCircle
 10
454.3160988351965
 20
330.8055069149984
 30
0.0
 40
1.0
100
AcDbArc
 50
270.0
 51
335.9369022976018
  0
ARC
  5
1C7E
330
1F
100
AcDbEntity
  8
YAKUMONO2
100
AcDbCircle
 10
456.7377051006296
 20
330.9555069150017
 30
0.0
 40
1.5
100
AcDbArc
 50
270.0
 51
155.9369022976017
  0
ARC
  5
1C7F
330
1F
100
AcDbEntity
  8
YAKUMONO2
100
AcDbCircle
 10
452.6638754078167
 20
330.8055069149984
 30
0.0
 40
1.0
100
AcDbArc
 50
203.4985656759388
 51
270.0
  0
LINE
  5
1C80
330
1F
100
AcDbEntity
  8
YAKUMONO
100
AcDbLine
 10
442.2800229679205
 20
328.183266418994
 30
0.0
 11
457.867179026577
 21
329.490601748538
 31
0.0
  0
LINE
  5
1C81
330
1F
100
AcDbEntity
  8
YAKUMONO2
100
AcDbLine
 10
451.7468053515631
 20
330.4067808035877
 30
0.0
 11
451.1539636330971
 21
331.770316756051
 31
0.0
  0
ARC
  5
1C82
330
1F
100
AcDbEntity
  8
YAKUMONO2
100
AcDbCircle
 10
452.6638754078167
 20
330.8055069149984
 30
0.0
 40
0.65
100
AcDbArc
 50
203.4985656759388
 51
270.0
  0
LINE
  5
1C83
330
1F
100
AcDbEntity
  8
YAKUMONO2
100
AcDbLine
 10
454.3160988351965
 20
330.1555069149988
 30
0.0
 11
452.663875407813
 21
330.1555069149988
 31
0.0
  0
LINE
  5
1C84
330
1F
100
AcDbEntity
  8
YAKUMONO2
100
AcDbLine
 10
452.0677798712513
 20
330.5463349425815
 30
0.0
 11
451.4749381527853
 21
331.9098708950467
 31
0.0
  0
LINE
  5
1C85
330
1F
100
AcDbEntity
  8
YAKUMONO2
100
AcDbLine
 10
456.7377051006342
 20
329.8055069149985
 30
0.0
 11
442.5877051006327
 21
329.8055069149985
 31
0.0
  0
LINE
  5
1C86
330
1F
100
AcDbEntity
  8
YAKUMONO2
100
AcDbLine
 10
456.7377051006296
 20
329.4555069150017
 30
0.0
 11
442.5877051006327
 21
329.4555069150017
 31
0.0
  0
ARC
  5
1C87
330
1F
100
AcDbEntity
  8
YAKUMONO2
100
AcDbCircle
 10
450.5578680965345
 20
331.5111447836359
 30
0.0
 40
0.65
100
AcDbArc
 50
23.49856567593885
 51
85.00194986027221
  0
ARC
  5
1C88
330
1F
100
AcDbEntity
  8
YAKUMONO2
100
AcDbCircle
 10
450.5578680965345
 20
331.5111447836359
 30
0.0
 40
1.0
100
AcDbArc
 50
23.49856567593885
 51
85.00194986027221
  0
LINE
  5
1C89
330
1F
100
AcDbEntity
  8
YAKUMONO2
100
AcDbLine
 10
450.6449899372474
 20
332.5073424471891
 30
0.0
 11
439.8683878617102
 21
333.4498034103297
 31
0.0
  0
LINE
  5
1C8A
330
1F
100
AcDbEntity
  8
YAKUMONO2
100
AcDbLine
 10
438.5877051006291
 20
331.9555069149999
 30
0.0
 11
438.5877051006291
 21
328.7055069150017
 31
0.0
  0
LINE
  5
1C8B
330
1F
100
AcDbEntity
  8
YAKUMONO2
100
AcDbLine
 10
439.3877051006275
 20
328.7055069150017
 30
0.0
 11
439.3877051006275
 21
331.9555069149999
 31
0.0
  0
LINE
  5
1C8C
330
1F
100
AcDbEntity
  8
YAKUMONO2
100
AcDbLine
 10
439.7377051006306
 20
328.7055069150017
 30
0.0
 11
439.7377051006306
 21
331.9555069149999
 31
0.0
  0
LINE
  5
1C8D
330
1F
100
AcDbEntity
  8
YAKUMONO2
100
AcDbLine
 10
439.3877051006275
 20
331.9555069149999
 30
0.0
 11
439.7377051006306
 21
331.9555069149999
 31
0.0
  0
ARC
  5
1C8E
330
1F
100
AcDbEntity
  8
YAKUMONO2
100
AcDbCircle
 10
439.7377051006306
 20
331.9555069149999
 30
0.0
 40
1.5
100
AcDbArc
 50
85.00194986027221
 51
180.0
  0
LINE
  5
1C8F
330
1F
100
AcDbEntity
  8
YAKUMONO2
100
AcDbLine
 10
450.6144972929951
 20
332.1586732649418
 30
0.0
 11
439.8378952174552
 21
333.1011342280878
 31
0.0
  0
ARC
  5
1C90
330
1F
100
AcDbEntity
  8
YAKUMONO2
100
AcDbCircle
 10
439.7377051006306
 20
331.9555069149999
 30
0.0
 40
1.149999999999999
100
AcDbArc
 50
85.00194986027221
 51
180.0
  0
TEXT
  5
1C91
330
1F
100
AcDbEntity
  8
MOJI
100
AcDbText
 10
480.2835886991325
 20
295.3246030420198
 30
0.0
 40
5.0
  1
止縁捨板
  7
CAD-DL
100
AcDbText
  0
LINE
  5
1C92
330
1F
100
AcDbEntity
  8
MOJI
100
AcDbLine
 10
454.5997157579567
 20
323.9555069150017
 30
0.0
 11
470.0076911242306
 21
297.2681107388382
 31
0.0
  0
LINE
  5
1C93
330
1F
100
AcDbEntity
  8
SI-RINGU
100
AcDbLine
 10
456.3671790265771
 20
332.4090234881594
 30
0.0
 11
456.3671790265771
 21
334.8549476320357
 31
0.0
  0
LINE
  5
1C94
330
1F
100
AcDbEntity
  8
MOJI
100
AcDbLine
 10
470.0076911242304
 20
297.2681107388382
 30
0.0
 11
480.0076911242305
 21
297.2681107388382
 31
0.0
  0
LINE
  5
1C95
330
1F
100
AcDbEntity
  8
SI-RINGU
100
AcDbLine
 10
458.2377051006305
 20
330.9555069150017
 30
0.0000000003328751
 11
458.367179026577
 21
330.9555069150017
 31
0.0
  0
LINE
  5
1C96
330
1F
100
AcDbEntity
  8
SI-RINGU
100
AcDbLine
 10
456.6291167911404
 20
332.4515712782693
 30
0.0
 11
458.7410218911299
 21
334.5634763782589
 31
0.0
  0
LINE
  5
1C97
330
1F
100
AcDbEntity
  8
SI-RINGU
100
AcDbLine
 10
459.8622158867883
 20
332.990593537598
 30
0.0
 11
461.1404820637517
 21
334.2688597145614
 31
0.0
  0
LINE
  5
1C98
330
1F
100
AcDbEntity
  8
SI-RINGU
100
AcDbLine
 10
458.1925208841749
 20
331.3208985349836
 30
0.0
 11
458.3671872375189
 21
331.4955648883267
 31
0.0
  0
LINE
  5
1C99
330
1F
100
AcDbEntity
  8
SI-RINGU
100
AcDbLine
 10
461.3400891547835
 20
331.774389969273
 30
0.0
 11
463.5399422363734
 21
333.974243050862
 31
0.0
  0
LINE
  5
1C9A
330
1F
100
AcDbEntity
  8
SI-RINGU
100
AcDbLine
 10
461.3671790265771
 20
329.1074030047428
 30
0.0
 11
465.9394024089943
 21
333.679626387159
 31
0.0
  0
LINE
  5
1C9B
330
1F
100
AcDbEntity
  8
SI-RINGU
100
AcDbLine
 10
461.3671790265762
 20
326.4133261684226
 30
0.0
 11
468.1000639595449
 21
333.1462111013905
 31
0.0
  0
LINE
  5
1C9C
330
1F
100
AcDbEntity
  8
SI-RINGU
100
AcDbLine
 10
461.591730957959
 20
324.7634254304655
 30
0.0
 11
461.3671790265771
 21
324.9879773618475
 31
0.0
  0
LINE
  5
1C9D
330
1F
100
AcDbEntity
  8
SI-RINGU
100
AcDbLine
 10
462.7692079204526
 20
326.2800253042922
 30
0.0
 11
461.3671790265762
 21
327.6820541981676
 31
0.0
  0
LINE
  5
1C9E
330
1F
100
AcDbEntity
  8
SI-RINGU
100
AcDbLine
 10
456.6000554694828
 20
332.4491777552619
 30
0.0
 11
456.3671790265771
 21
332.6820541981676
 31
0.0
  0
LINE
  5
1C9F
330
1F
100
AcDbEntity
  8
SI-RINGU
100
AcDbLine
 10
459.0169471247736
 20
332.7263629362903
 30
0.0
 11
456.9613128952077
 21
334.7819971658562
 31
0.0
  0
LINE
  5
1CA0
330
1F
100
AcDbEntity
  8
SI-RINGU
100
AcDbLine
 10
463.9466848829442
 20
327.7966251781188
 30
0.0
 11
461.3671790265762
 21
330.3761310344878
 31
0.0
  0
LINE
  5
1CA1
330
1F
100
AcDbEntity
  8
SI-RINGU
100
AcDbLine
 10
465.1241618454386
 20
329.3132250519454
 30
0.0
 11
460.0324818649351
 21
334.404905032449
 31
0.0
  0
LINE
  5
1CA2
330
1F
100
AcDbEntity
  8
SI-RINGU
100
AcDbLine
 10
466.3016388079322
 20
330.8298249257757
 30
0.0
 11
463.1036508346642
 21
334.0278128990437
 31
0.0
  0
LINE
  5
1CA3
330
1F
100
AcDbEntity
  8
SI-RINGU
100
AcDbLine
 10
467.4791157704257
 20
332.3464247996024
 30
0.0
 11
466.1748198043905
 21
333.6507207656384
 31
0.0
  0
TEXT
  5
1CA5
330
1F
100
AcDbEntity
  8
MOJI
100
AcDbText
 10
479.6237783924534
 20
308.7274092844916
 30
0.0
 40
5.0
  1
止縁キャップC15
  7
CAD-DL
100
AcDbText
  0
LINE
  5
1CA6
330
1F
100
AcDbEntity
  8
SI-RINGU
100
AcDbLine
 10
468.2901127257974
 20
333.3909954531016
 30
0.000000000288059
 11
461.3671790265771
 21
324.4742007223401
 31
0.0
  0
LINE
  5
1CA7
330
1F
100
AcDbEntity
  8
YAKUMONO2
100
AcDbLine
 10
438.5877051006327
 20
286.9555069150017
 30
0.0
 11
438.5877051006327
 21
296.3777171640657
 31
0.0
  0
LINE
  5
1CA8
330
1F
100
AcDbEntity
  8
YAKUMONO2
100
AcDbLine
 10
438.2377051006305
 20
286.9555069150017
 30
0.0
 11
438.2377051006305
 21
296.3777171640657
 31
0.0
  0
LINE
  5
1CA9
330
1F
100
AcDbEntity
  8
YAKUMONO2
100
AcDbLine
 10
440.1226908917169
 20
291.3947300528168
 30
0.0
 11
440.4673736052727
 21
291.4555069150017
 31
0.0
  0
ARC
  5
1CAA
330
1F
100
AcDbEntity
  8
YAKUMONO2
100
AcDbCircle
 10
439.7377051006342
 20
286.9555069150017
 30
0.0
 40
1.149999999999999
100
AcDbArc
 50
180.0
 51
10.00000000005426
  0
LINE
  5
1CAB
330
1F
100
AcDbEntity
  8
YAKUMONO2
100
AcDbLine
 10
441.2149167301522
 20
287.2159791815018
 30
0.0
 11
440.4673736052727
 21
291.4555069150017
 31
0.0
  0
ARC
  5
1CAC
330
1F
100
AcDbEntity
  8
YAKUMONO2
100
AcDbCircle
 10
439.7377051006342
 20
286.9555069150017
 30
0.0
 40
1.5
100
AcDbArc
 50
180.0
 51
10.00000000005426
  0
ARC
  5
1CAD
330
1F
100
AcDbEntity
  8
YAKUMONO2
100
AcDbCircle
 10
439.7377051006306
 20
296.3777171640657
 30
0.0
 40
1.149999999999999
100
AcDbArc
 50
131.914920246082
 51
180.0
  0
ARC
  5
1CAE
330
1F
100
AcDbEntity
  8
YAKUMONO2
100
AcDbCircle
 10
439.7377051006306
 20
296.3777171640657
 30
0.0
 40
1.5
100
AcDbArc
 50
131.914920246082
 51
180.0
  0
ARC
  5
1CAF
330
1F
100
AcDbEntity
  8
YAKUMONO2
100
AcDbCircle
 10
437.4235746658487
 20
298.9555069150017
 30
0.0
 40
2.314130434782579
100
AcDbArc
 50
311.914920246082
 51
48.08507975391801
  0
ARC
  5
1CB0
330
1F
100
AcDbEntity
  8
YAKUMONO2
100
AcDbCircle
 10
439.7377051006306
 20
301.5332966659341
 30
0.0
 40
1.5
100
AcDbArc
 50
180.0
 51
228.085079753918
  0
ARC
  5
1CB1
330
1F
100
AcDbEntity
  8
YAKUMONO2
100
AcDbCircle
 10
439.7377051006306
 20
301.5332966659341
 30
0.0
 40
1.149999999999999
100
AcDbArc
 50
180.0
 51
228.085079753918
  0
ARC
  5
1CB2
330
1F
100
AcDbEntity
  8
YAKUMONO2
100
AcDbCircle
 10
437.4235746658487
 20
298.9555069150017
 30
0.0
 40
1.964130434782579
100
AcDbArc
 50
311.914920246082
 51
48.08507975391801
  0
LINE
  5
1CB3
330
1F
100
AcDbEntity
  8
YAKUMONO2
100
AcDbLine
 10
438.5877051006327
 20
322.2055069150017
 30
0.0
 11
438.5877051006327
 21
301.5332966659378
 31
0.0
  0
LINE
  5
1CB4
330
1F
100
AcDbEntity
  8
YAKUMONO2
100
AcDbLine
 10
438.2377051006305
 20
322.2055069150053
 30
0.0
 11
438.2377051006342
 21
301.5332966659378
 31
0.0
  0
LINE
  5
1D83
330
1F
100
AcDbEntity
  8
MOJI
100
AcDbLine
 10
447.9924127108061
 20
260.6157767372795
 30
0.0
 11
463.9637656528439
 21
232.9525819760627
 31
0.0
  0
LINE
  5
1DC0
330
1F
100
AcDbEntity
  8
SEIHIN
100
AcDbLine
 10
438.7912653451722
 20
314.6870781891396
 30
0.0
 11
438.7912653451722
 21
248.8578130981011
 31
0.0
  0
LINE
  5
1DD9
330
1F
100
AcDbEntity
  8
MOJI
100
AcDbLine
 10
454.570223733077
 20
310.246024298144
 30
0.0
 11
466.6305296410707
 21
289.2062783256849
 31
0.0
  0
LINE
  5
1DDB
330
1F
100
AcDbEntity
  8
MOJI
100
AcDbLine
 10
466.6305296410699
 20
289.2062783256849
 30
0.0
 11
476.6305296410698
 21
289.2062783256849
 31
0.0
  0
TEXT
  5
1DDC
330
1F
100
AcDbEntity
  8
MOJI
100
AcDbText
 10
476.2983167145919
 20
286.4957627025804
 30
0.0
 40
5.0
  1
パッキン材Ｃ
  7
CAD-DL
100
AcDbText
  0
TEXT
  5
1DDD
330
1F
100
AcDbEntity
  8
MOJI
100
AcDbText
 10
475.0373666502009
 20
230.4805610763076
 30
0.0
 40
5.0
  1
SP-ビレクト
  7
CAD-DL
100
AcDbText
  0
LINE
  5
2632
330
1F
100
AcDbEntity
  8
SEIHIN
100
AcDbLine
 10
450.0586182339214
 20
315.9555069150017
 30
0.0
 11
438.7912655510127
 21
315.9555069150017
 31
0.0
  0
LINE
  5
267E
330
1F
100
AcDbEntity
  8
SEIHIN
100
AcDbLine
 10
439.8798745931771
 20
228.6947585348814
 30
0.0
 11
440.2737975510108
 21
228.6252992957495
 31
0.0
  0
LINE
  5
26CA
330
1F
100
AcDbEntity
  8
SEIHIN
100
AcDbLine
 10
443.2912655510127
 20
210.7550042957489
 30
0.0
 11
443.2912655510127
 21
202.8050042957409
 31
0.0
  0
LINE
  5
26CB
330
1F
100
AcDbEntity
  8
SEIHIN
100
AcDbLine
 10
439.0712655510115
 20
223.595004295749
 30
0.0
 11
439.6712655510119
 21
224.3950042957465
 31
0.0
  0
LINE
  5
26CC
330
1F
100
AcDbEntity
  8
SEIHIN
100
AcDbLine
 10
438.7912655510127
 20
230.7550042957489
 30
0.0
 11
438.7912655510127
 21
132.654822950634
 31
0.0
  0
LINE
  5
26CD
330
1F
100
AcDbEntity
  8
SEIHIN
100
AcDbLine
 10
439.6712655510119
 20
225.1150042957495
 30
0.0
 11
439.0712655510115
 21
225.9150042957488
 31
0.0
  0
LINE
  5
26CE
330
1F
100
AcDbEntity
  8
SEIHIN
100
AcDbLine
 10
449.8470605137003
 20
132.654822950634
 30
0.0
 11
447.700543483289
 21
200.6278578991084
 31
0.0
  0
LINE
  5
26CF
330
1F
100
AcDbEntity
  8
SEIHIN
100
AcDbLine
 10
443.6912655510105
 20
210.7550042957489
 30
0.0
 11
443.6912655510105
 21
202.8050042957409
 31
0.0
  0
ARC
  5
26D0
330
1F
100
AcDbEntity
  8
SEIHIN
100
AcDbCircle
 10
441.2412655510097
 20
202.8050042957409
 30
0.0
 40
2.450000000000017
100
AcDbArc
 50
180.0
 51
0.0
  0
LINE
  5
26D1
330
1F
100
AcDbEntity
  8
SEIHIN
100
AcDbLine
 10
439.1912655510104
 20
234.5050042957489
 30
0.0
 11
439.1912655510104
 21
226.7550042957489
 31
0.0
  0
ARC
  5
26D2
330
1F
100
AcDbEntity
  8
SEIHIN
100
AcDbCircle
 10
446.2012908468996
 20
200.5805130759825
 30
0.0
 40
1.5
100
AcDbArc
 50
1.808739438080778
 51
11.45538045669854
  0
LINE
  5
26D3
330
1F
100
AcDbEntity
  8
SEIHIN
100
AcDbLine
 10
438.7912655510108
 20
234.5050042957489
 30
0.0
 11
438.7912655510108
 21
226.7550042957489
 31
0.0
  0
LINE
  5
26D4
330
1F
100
AcDbEntity
  8
SEIHIN
100
AcDbLine
 10
446.9211460507767
 20
202.5667926178091
 30
0.0
 11
447.2793784804025
 21
200.7989783008804
 31
0.0
  0
LINE
  5
26D5
330
1F
100
AcDbEntity
  8
SEIHIN
100
AcDbLine
 10
440.8783515510122
 20
234.3574032957465
 30
0.0
 11
439.8798745510121
 21
228.6947582957462
 31
0.0
  0
LINE
  5
26D6
330
1F
100
AcDbEntity
  8
SEIHIN
100
AcDbLine
 10
449.4468611173885
 20
132.654822950634
 30
0.0
 11
447.3007427802504
 21
200.6152326129584
 31
0.0
  0
LINE
  5
26D7
330
1F
100
AcDbEntity
  8
SEIHIN
100
AcDbLine
 10
441.2722745510118
 20
234.2879432957477
 30
0.0
 11
440.2737975510108
 21
228.6252992957495
 31
0.0
  0
ARC
  5
26D8
330
1F
100
AcDbEntity
  8
SEIHIN
100
AcDbCircle
 10
440.0412655510126
 20
234.5050042957489
 30
0.0
 40
0.8500000000000227
100
AcDbArc
 50
349.9999999999461
 51
180.0
  0
ARC
  5
26D9
330
1F
100
AcDbEntity
  8
SEIHIN
100
AcDbCircle
 10
440.0412655510126
 20
234.5050042957489
 30
0.0
 40
1.250000000000057
100
AcDbArc
 50
349.9999999999461
 51
180.0
  0
LINE
  5
26DA
330
1F
100
AcDbEntity
  8
SEIHIN
100
AcDbLine
 10
451.840024551012
 20
198.2778372957461
 30
0.0
 11
448.9030365510116
 21
199.0648012957506
 31
0.0
  0
POINT
  5
26DB
330
1F
100
AcDbEntity
  8
SEIHIN
100
AcDbPoint
 10
447.7912655510108
 20
197.7550042957489
 30
0.0
 50
270.0
  0
ARC
  5
26DC
330
1F
100
AcDbEntity
  8
SEIHIN
100
AcDbCircle
 10
440.1912655510122
 20
222.7550042957489
 30
0.0
 40
1.0
100
AcDbArc
 50
143.1301019999108
 51
216.8698980000892
  0
ARC
  5
26DD
330
1F
100
AcDbEntity
  8
SEIHIN
100
AcDbCircle
 10
439.1912655510104
 20
220.7550042957416
 30
0.0
 40
1.0
100
AcDbArc
 50
323.1301019999108
 51
36.86989800008922
  0
ARC
  5
26DE
330
1F
100
AcDbEntity
  8
SEIHIN
100
AcDbCircle
 10
439.1912655510104
 20
224.7550042957489
 30
0.0
 40
1.0
100
AcDbArc
 50
323.1301019999108
 51
36.86989800008922
  0
LINE
  5
26DF
330
1F
100
AcDbEntity
  8
SEIHIN
100
AcDbLine
 10
439.3912655510121
 20
222.1550042957485
 30
0.0
 11
439.9912655510116
 21
221.3550042957493
 31
0.0
  0
LINE
  5
26E0
330
1F
100
AcDbEntity
  8
SEIHIN
100
AcDbLine
 10
439.3912655510121
 20
223.3550042957493
 30
0.0
 11
439.9912655510116
 21
224.1550042957485
 31
0.0
  0
LINE
  5
26E1
330
1F
100
AcDbEntity
  8
SEIHIN
100
AcDbLine
 10
439.3912655510121
 20
219.3550042957493
 30
0.0
 11
439.9912655510116
 21
220.1550042957503
 31
0.0
  0
ARC
  5
26E2
330
1F
100
AcDbEntity
  8
SEIHIN
100
AcDbCircle
 10
440.1912655510122
 20
218.7550042957489
 30
0.0
 40
1.0
100
AcDbArc
 50
143.1301019999108
 51
180.0
  0
LINE
  5
26E3
330
1F
100
AcDbEntity
  8
SEIHIN
100
AcDbLine
 10
439.3912655510121
 20
226.1550042957485
 30
0.0
 11
439.9912655510116
 21
225.3550042957493
 31
0.0
  0
ARC
  5
26E4
330
1F
100
AcDbEntity
  8
SEIHIN
100
AcDbCircle
 10
440.1912655510122
 20
226.7550042957489
 30
0.0
 40
1.0
100
AcDbArc
 50
180.0
 51
216.8698980000892
  0
LINE
  5
26E5
330
1F
100
AcDbEntity
  8
SEIHIN
100
AcDbLine
 10
439.1912655510104
 20
218.7550042957489
 30
0.0
 11
439.1912655510104
 21
202.8050042957409
 31
0.0
  0
ARC
  5
26E6
330
1F
100
AcDbEntity
  8
SEIHIN
100
AcDbCircle
 10
440.1912655510122
 20
218.7550042957489
 30
0.0
 40
1.399999999999999
100
AcDbArc
 50
143.1301019999108
 51
180.0
  0
LINE
  5
26E7
330
1F
100
AcDbEntity
  8
SEIHIN
100
AcDbLine
 10
439.0712655510115
 20
219.5950042957491
 30
0.0
 11
439.6712655510119
 21
220.3950042957465
 31
0.0
  0
ARC
  5
26E8
330
1F
100
AcDbEntity
  8
SEIHIN
100
AcDbCircle
 10
439.1912655510104
 20
220.7550042957416
 30
0.0
 40
0.6
100
AcDbArc
 50
323.1301019999108
 51
36.86989800008922
  0
LINE
  5
26E9
330
1F
100
AcDbEntity
  8
SEIHIN
100
AcDbLine
 10
439.6712655510119
 20
221.1150042957495
 30
0.0
 11
439.0712655510115
 21
221.9150042957488
 31
0.0
  0
ARC
  5
26EA
330
1F
100
AcDbEntity
  8
SEIHIN
100
AcDbCircle
 10
440.1912655510122
 20
222.7550042957489
 30
0.0
 40
1.399999999999999
100
AcDbArc
 50
143.1301019999108
 51
216.8698980000892
  0
ARC
  5
26EB
330
1F
100
AcDbEntity
  8
SEIHIN
100
AcDbCircle
 10
439.1912655510104
 20
224.7550042957489
 30
0.0
 40
0.6
100
AcDbArc
 50
323.1301019999108
 51
36.86989800008922
  0
ARC
  5
26EC
330
1F
100
AcDbEntity
  8
SEIHIN
100
AcDbCircle
 10
440.1912655510122
 20
226.7550042957489
 30
0.0
 40
1.399999999999999
100
AcDbArc
 50
180.0
 51
216.8698980000892
  0
ARC
  5
26ED
330
1F
100
AcDbEntity
  8
SEIHIN
100
AcDbCircle
 10
441.2412655510097
 20
202.8050042957409
 30
0.0
 40
2.050000000000038
100
AcDbArc
 50
180.0
 51
0.0
  0
LINE
  5
26EE
330
1F
100
AcDbEntity
  8
SEIHIN
100
AcDbLine
 10
438.7912655510108
 20
218.7550042957489
 30
0.0
 11
438.7912655510108
 21
202.8050042957409
 31
0.0
  0
ARC
  5
26EF
330
1F
100
AcDbEntity
  8
SEIHIN
100
AcDbCircle
 10
448.3912655510103
 20
202.8646997426465
 30
0.0
 40
1.1
100
AcDbArc
 50
180.0
 51
191.4553804566985
  0
ARC
  5
26F0
330
1F
100
AcDbEntity
  8
SEIHIN
100
AcDbCircle
 10
445.2912655510126
 20
210.7550042957489
 30
0.0
 40
2.0
100
AcDbArc
 50
0.0
 51
180.0
  0
LINE
  5
26F1
330
1F
100
AcDbEntity
  8
SEIHIN
100
AcDbLine
 10
447.3131779175064
 20
202.6462345177704
 30
0.0
 11
447.6714103471358
 21
200.8784202008217
 31
0.0
  0
ARC
  5
26F2
330
1F
100
AcDbEntity
  8
SEIHIN
100
AcDbCircle
 10
446.2012908468986
 20
200.5805130759989
 30
0.0
 40
1.1
100
AcDbArc
 50
1.808739438080778
 51
11.45538045669854
  0
LINE
  5
26F3
330
1F
100
AcDbEntity
  8
SEIHIN
100
AcDbLine
 10
447.2912655510127
 20
210.7550042957489
 30
0.0
 11
447.2912655510108
 21
202.8646997426465
 31
0.0
  0
LINE
  5
26F4
330
1F
100
AcDbEntity
  8
SEIHIN
100
AcDbLine
 10
446.8912655510121
 20
210.7550042957489
 30
0.0
 11
446.8912655510102
 21
202.8646997426465
 31
0.0
  0
ARC
  5
26F5
330
1F
100
AcDbEntity
  8
SEIHIN
100
AcDbCircle
 10
448.3912655510103
 20
202.8646997426465
 30
0.0
 40
1.5
100
AcDbArc
 50
180.0
 51
191.4553804566985
  0
LINE
  5
26F6
330
1F
100
AcDbEntity
  8
SEIHIN
100
AcDbLine
 10
441.8483465510116
 20
209.8374982957509
 30
0.0
 11
440.8064575510116
 21
203.9286522957489
 31
0.0
  0
ARC
  5
26F7
330
1F
100
AcDbEntity
  8
SEIHIN
100
AcDbCircle
 10
445.2912655510126
 20
210.7550042957489
 30
0.0
 40
1.600000000000361
100
AcDbArc
 50
0.0
 51
180.0
  0
LINE
  5
26F8
330
1F
100
AcDbEntity
  8
SEIHIN
100
AcDbLine
 10
442.7912655510126
 20
212.2550042957489
 30
0.0
 11
442.7912655510126
 21
203.7550042957489
 31
0.0
  0
LINE
  5
26F9
330
1F
100
AcDbEntity
  8
SEIHIN
100
AcDbLine
 10
442.3912655510121
 20
203.7550042957489
 30
0.0
 11
442.3912655510121
 21
243.32657729575
 31
0.0
  0
LINE
  5
26FA
330
1F
100
AcDbEntity
  8
SEIHIN
100
AcDbLine
 10
453.3277045510121
 20
199.7614452957484
 30
0.0
 11
449.6584185376495
 21
315.9555069150017
 31
0.0
  0
ARC
  5
26FB
330
1F
100
AcDbEntity
  8
SEIHIN
100
AcDbCircle
 10
445.2912655510126
 20
212.2550042957489
 30
0.0
 40
2.499999999999949
100
AcDbArc
 50
0.0
 51
180.0
  0
LINE
  5
26FC
330
1F
100
AcDbEntity
  8
SEIHIN
100
AcDbLine
 10
447.7912655510108
 20
212.2550042957489
 30
0.0
 11
447.7912655510108
 21
200.5136892957496
 31
0.0
  0
LINE
  5
26FD
330
1F
100
AcDbEntity
  8
SEIHIN
100
AcDbLine
 10
453.7275055510117
 20
199.77407129575
 30
0.0
 11
450.0586182339214
 21
315.9555069150017
 31
0.0
  0
ARC
  5
26FE
330
1F
100
AcDbEntity
  8
SEIHIN
100
AcDbCircle
 10
452.2282525510117
 20
199.7267262957509
 30
0.0
 40
1.1
100
AcDbArc
 50
255.0000000000056
 51
1.808738999928308
  0
LINE
  5
26FF
330
1F
100
AcDbEntity
  8
SEIHIN
100
AcDbLine
 10
442.3912655510121
 20
212.2550042957489
 30
0.0
 11
442.3912655510121
 21
203.7550042957489
 31
0.0
  0
LINE
  5
2700
330
1F
100
AcDbEntity
  8
SEIHIN
100
AcDbLine
 10
448.1912655510105
 20
212.2550042957489
 30
0.0
 11
448.1912655510105
 21
200.5136892957496
 31
0.0
  0
LINE
  5
2701
330
1F
100
AcDbEntity
  8
SEIHIN
100
AcDbLine
 10
442.2422695510122
 20
209.7680392957488
 30
0.0
 11
441.8483465510116
 21
209.8374982957509
 31
0.0
  0
LINE
  5
2702
330
1F
100
AcDbEntity
  8
SEIHIN
100
AcDbLine
 10
451.9435515510122
 20
198.6642082957485
 30
0.0
 11
449.0065645510121
 21
199.4511712957508
 31
0.0
  0
ARC
  5
2703
330
1F
100
AcDbEntity
  8
SEIHIN
100
AcDbCircle
 10
445.2912655510126
 20
212.2550042957489
 30
0.0
 40
2.900000000000028
100
AcDbArc
 50
0.0
 51
180.0
  0
LINE
  5
2704
330
1F
100
AcDbEntity
  8
SEIHIN
100
AcDbLine
 10
438.7912655510127
 20
315.9555069150017
 30
0.0
 11
438.7912655510108
 21
248.5834312957475
 31
0.0
  0
ARC
  5
2705
330
1F
100
AcDbEntity
  8
SEIHIN
100
AcDbCircle
 10
441.7912655510108
 20
203.7550042957489
 30
0.0
 40
1.0
100
AcDbArc
 50
169.9999999999461
 51
0.0
  0
ARC
  5
2706
330
1F
100
AcDbEntity
  8
SEIHIN
100
AcDbCircle
 10
440.7912655510126
 20
248.5834312957475
 30
0.0
 40
2.0
100
AcDbArc
 50
180.0
 51
224.999999999861
  0
LINE
  5
2707
330
1F
100
AcDbEntity
  8
SEIHIN
100
AcDbLine
 10
439.3770515510104
 20
247.1692172957489
 30
0.0
 11
441.8054785510121
 21
244.74079029575
 31
0.0
  0
LINE
  5
2708
330
1F
100
AcDbEntity
  8
SEIHIN
100
AcDbLine
 10
442.2422695510122
 20
209.7680392957488
 30
0.0
 11
441.2003805510121
 21
203.8591932957504
 31
0.0
  0
ARC
  5
2709
330
1F
100
AcDbEntity
  8
SEIHIN
100
AcDbCircle
 10
440.391265551012
 20
243.32657729575
 30
0.0
 40
2.0
100
AcDbArc
 50
0.0
 51
44.99999999986096
  0
ARC
  5
270A
330
1F
100
AcDbEntity
  8
SEIHIN
100
AcDbCircle
 10
441.7912655510108
 20
203.7550042957489
 30
0.0
 40
0.6
100
AcDbArc
 50
169.9999999999461
 51
0.0
  0
ARC
  5
270B
330
1F
100
AcDbEntity
  8
SEIHIN
100
AcDbCircle
 10
449.2912655510126
 20
200.5136892957496
 30
0.0
 40
1.5
100
AcDbArc
 50
180.0
 51
255.0000000000056
  0
ARC
  5
270C
330
1F
100
AcDbEntity
  8
SEIHIN
100
AcDbCircle
 10
452.2282525510117
 20
199.7267262957509
 30
0.0
 40
1.5
100
AcDbArc
 50
255.0000000000056
 51
1.808738999928308
  0
ARC
  5
270D
330
1F
100
AcDbEntity
  8
SEIHIN
100
AcDbCircle
 10
446.7445332964053
 20
215.8957642219036
 30
0.0
 40
3.788242501833976
100
AcDbArc
 50
210.9511139949641
 51
286.040143549179
  0
ARC
  5
270E
330
1F
100
AcDbEntity
  8
SEIHIN
100
AcDbCircle
 10
449.2912655510126
 20
200.5136892957496
 30
0.0
 40
1.1
100
AcDbArc
 50
180.0
 51
255.0000000000056
  0
LINE
  5
270F
330
1F
100
AcDbEntity
  8
SI-RINGU
100
AcDbLine
 10
450.3352926426323
 20
307.707983219764
 30
0.0
 11
450.9063830182602
 21
308.2790735953909
 31
0.0
1001
GradientColor1ACI
1070
     5
1001
GradientColor2ACI
1070
     2
1001
ACAD
1010
0.0
1020
0.0
1030
0.0
  0
LINE
  5
2710
330
1F
100
AcDbEntity
  8
SI-RINGU
100
AcDbLine
 10
454.6168657679872
 20
305.7725541179104
 30
0.0
 11
452.0734902731692
 21
308.3159296127302
 31
0.0
1001
GradientColor1ACI
1070
     5
1001
GradientColor2ACI
1070
     2
1001
ACAD
1010
0.0
1020
0.0
1030
0.0
  0
LINE
  5
2711
330
1F
100
AcDbEntity
  8
SI-RINGU
100
AcDbLine
 10
450.4095704047358
 20
305.0881841455473
 30
0.0
 11
453.6883101831556
 21
308.3669239239661
 31
0.0
1001
GradientColor1ACI
1070
     5
1001
GradientColor2ACI
1070
     2
1001
ACAD
1010
0.0
1020
0.0
1030
0.0
  0
LINE
  5
2712
330
1F
100
AcDbEntity
  8
SI-RINGU
100
AcDbLine
 10
450.7171755855242
 20
302.7017124900146
 30
0.0
 11
454.9761407513056
 21
306.9606776557951
 31
0.0
1001
GradientColor1ACI
1070
     5
1001
GradientColor2ACI
1070
     2
1001
ACAD
1010
0.0
1020
0.0
1030
0.0
  0
LINE
  5
2713
330
1F
100
AcDbEntity
  8
SI-RINGU
100
AcDbLine
 10
453.6953990138372
 20
302.9858590820065
 30
0.0
 11
454.5263768699578
 21
303.8168369381281
 31
0.0
1001
GradientColor1ACI
1070
     5
1001
GradientColor2ACI
1070
     2
1001
ACAD
1010
0.0
1020
0.0
1030
0.0
  0
LINE
  5
2714
330
1F
100
AcDbEntity
  8
SI-RINGU
100
AcDbLine
 10
454.6211589824215
 20
303.0741840671551
 30
0.0
 11
450.3454452469623
 21
307.3498978026153
 31
0.0
1001
GradientColor1ACI
1070
     5
1001
GradientColor2ACI
1070
     2
1001
ACAD
1010
0.0
1020
0.0
1030
0.0
  0
LINE
  5
2715
330
1F
100
AcDbEntity
  8
SI-RINGU
100
AcDbLine
 10
450.0565331653312
 20
316.0215340892484
 30
0.0000000009637499
 11
460.051549846873
 21
316.3371945658765
 31
0.0000000009637499
1001
GradientColor1ACI
1070
     5
1001
GradientColor2ACI
1070
     2
1001
ACAD
1010
0.0
1020
0.0
1030
0.0
  0
LINE
  5
2716
330
1F
100
AcDbEntity
  8
SI-RINGU
100
AcDbLine
 10
452.1617314185141
 20
302.8395347947433
 30
0.0
 11
450.4240578271774
 21
304.57720838608
 31
0.0
1001
GradientColor1ACI
1070
     5
1001
GradientColor2ACI
1070
     2
1001
ACAD
1010
0.0
1020
0.0
1030
0.0
  0
LINE
  5
2717
330
1F
100
AcDbEntity
  8
SI-RINGU
100
AcDbLine
 10
455.2184504748677
 20
307.8650462473537
 30
0.0
 11
454.6850953722865
 21
308.3984013499351
 31
0.0
1001
GradientColor1ACI
1070
     5
1001
GradientColor2ACI
1070
     2
1001
ACAD
1010
0.0
1020
0.0
1030
0.0
  0
LINE
  5
2718
330
1F
100
AcDbEntity
  8
SI-RINGU
100
AcDbLine
 10
449.9964052458274
 20
317.9255849376576
 30
0.0000000009637499
 11
459.9914219273691
 21
318.2412454142857
 31
0.0000000009637499
1001
GradientColor1ACI
1070
     5
1001
GradientColor2ACI
1070
     2
1001
ACAD
1010
0.0
1020
0.0
1030
0.0
  0
LINE
  5
2719
330
1F
100
AcDbEntity
  8
SI-RINGU
100
AcDbLine
 10
450.2970448433496
 20
308.4053306956153
 30
0.0000000009637499
 11
455.4064500268582
 21
308.5666948360565
 31
0.0000000009637499
1001
GradientColor1ACI
1070
     5
1001
GradientColor2ACI
1070
     2
1001
ACAD
1010
0.0
1020
0.0
1030
0.0
  0
LINE
  5
271A
330
1F
100
AcDbEntity
  8
SI-RINGU
100
AcDbLine
 10
450.116661084836
 20
314.117483240841
 30
0.0000000009637499
 11
460.1116777663776
 21
314.4331437174691
 31
0.0000000009637499
1001
GradientColor1ACI
1070
     5
1001
GradientColor2ACI
1070
     2
1001
ACAD
1010
0.0
1020
0.0
1030
0.0
  0
LINE
  5
271B
330
1F
100
AcDbEntity
  8
SI-RINGU
100
AcDbLine
 10
450.2369169238447
 20
310.3093815440227
 30
0.0000000009637499
 11
455.9215061962086
 21
310.4889110251954
 31
0.0000000009637499
1001
GradientColor1ACI
1070
     5
1001
GradientColor2ACI
1070
     2
1001
ACAD
1010
0.0
1020
0.0
1030
0.0
  0
LINE
  5
271C
330
1F
100
AcDbEntity
  8
SI-RINGU
100
AcDbLine
 10
450.1767890043408
 20
312.2134323924319
 30
0.0000000009637499
 11
460.1718056858815
 21
312.5290928690599
 31
0.0000000009637499
1001
GradientColor1ACI
1070
     5
1001
GradientColor2ACI
1070
     2
1001
ACAD
1010
0.0
1020
0.0
1030
0.0
  0
LINE
  5
271D
330
1F
100
AcDbEntity
  8
SI-RINGU
100
AcDbLine
 10
460.1991118061937
 20
311.6643990300638
 30
0.0
 11
459.9494576711997
 21
319.5701135710464
 31
0.0
  0
LINE
  5
271E
330
1F
100
AcDbEntity
  8
SI-RINGU
100
AcDbLine
 10
459.9494576711997
 20
319.5701135710464
 30
0.0
 11
449.9544400942932
 21
319.254481447628
 31
0.0
  0
LINE
  5
271F
330
1F
100
AcDbEntity
  8
SI-RINGU
100
AcDbLine
 10
449.9544400942932
 20
319.254481447628
 30
0.0
 11
450.3016349823306
 21
308.2599762896339
 31
0.0
  0
LINE
  5
2720
330
1F
100
AcDbEntity
  8
SI-RINGU
100
AcDbLine
 10
450.3194818436759
 20
307.6948256613584
 30
0.0
 11
450.4778800667127
 21
302.6788817629774
 31
0.0
  0
LINE
  5
2721
330
1F
100
AcDbEntity
  8
SI-RINGU
100
AcDbLine
 10
450.3016349823306
 20
308.2599762896339
 30
0.0
 11
455.3671269779584
 21
308.4199391893915
 31
0.0
  0
LINE
  5
2722
330
1F
100
AcDbEntity
  8
SI-RINGU
100
AcDbLine
 10
450.4772503165449
 20
302.6988238522797
 30
0.0
 11
455.2306886944252
 21
303.1323381293175
 31
0.0
  0
LINE
  5
2723
330
1F
100
AcDbEntity
  8
SI-RINGU
100
AcDbLine
 10
456.5680970704502
 20
311.5497251001798
 30
0.0
 11
460.1991118061937
 21
311.6643990300638
 31
0.0
1001
GradientColor1ACI
1070
     5
1001
GradientColor2ACI
1070
     2
1001
ACAD
1010
0.0
1020
0.0
1030
0.0
  0
MTEXT
  5
273A
102
{ACAD_XDICTIONARY
360
27E2
102
}
330
1F
100
AcDbEntity
  8
0
 48
0.2
100
AcDbMText
 10
265.0359957863866
 20
18.01285782280956
 30
0.0
 40
5.0
 41
259.6941614988586
 46
0.0
 71
     1
 72
     5
  1
\pi103.34;SP-{\fMS PGothic|b0|i0|c128|p50;ビレクト　新築\P\pi37.891;\W0.9;軒04（止縁ｷｬｯﾌﾟC15・止縁捨板15・通気軒見切15-25・パッキン材C）}
 73
     1
 44
1.0
1001
ACAD
1000
ACAD_MTEXT_COLUMN_INFO_BEGIN
1070
    75
1070
     2
1070
    79
1070
     0
1070
    76
1070
     1
1070
    78
1070
     0
1070
    48
1040
259.6941614988586
1070
    49
1040
1.0
1070
    50
1070
     1
1040
0.0
1000
ACAD_MTEXT_COLUMN_INFO_END
  0
INSERT
  5
2982
330
1F
100
AcDbEntity
  8
0
100
AcDbBlockReference
  2
平頭L25
 10
438.5877051006328
 20
305.3507033281339
 30
0.0
 50
270.0
  0
INSERT
  5
2984
330
1F
100
AcDbEntity
  8
0
100
AcDbBlockReference
  2
平頭L25
 10
439.1912655510104
 20
222.7713273688079
 30
0.0
 50
270.0
  0
INSERT
  5
2A07
330
1F
100
AcDbEntity
  8
0
100
AcDbBlockReference
  2
平頭L45
 10
450.2330063920558
 20
310.4330990357382
 30
0.0
 50
272.0
  0
TEXT
  5
2BA1
330
1F
100
AcDbEntity
  8
WAKU
100
AcDbText
 10
362.4111675126887
 20
33.99661590524443
 30
0.0
 40
5.0
  1
SP-ビレクト　新築
  7
WAKU
100
AcDbText
  0
TEXT
  5
2BA2
330
1F
100
AcDbEntity
  8
WAKU
100
AcDbText
 10
298.7270131505825
 20
25.38409475465233
 30
0.0
 40
4.5
  1
軒04（止縁キャップC15・止縁捨板・通気軒見切15-25・パッキン材Ｃ）
  7
WAKU
100
AcDbText
  0
ENDSEC
  0
SECTION
  2
OBJECTS
  0
DICTIONARY
  5
C
330
0
100
AcDbDictionary
281
     1
  3
ACAD_CIP_PREVIOUS_PRODUCT_INFO
350
1A5
  3
ACAD_COLOR
350
73
  3
ACAD_DETAILVIEWSTYLE
350
1AB
  3
ACAD_GROUP
350
D
  3
ACAD_LAYOUT
350
1A
  3
ACAD_MATERIAL
350
72
  3
ACAD_MLEADERSTYLE
350
D7
  3
ACAD_MLINESTYLE
350
17
  3
ACAD_PLOTSETTINGS
350
19
  3
ACAD_PLOTSTYLENAME
350
E
  3
ACAD_SCALELIST
350
B6
  3
ACAD_SECTIONVIEWSTYLE
350
1A8
  3
ACAD_TABLESTYLE
350
86
  3
ACAD_VISUALSTYLE
350
99
  3
ACDB_RECOMPOSE_DATA
350
2C63
  3
AcDbVariableDictionary
350
66
  3
AcDsDecomposeData
350
2C69
  0
DICTIONARY
  5
4F8
330
8
100
AcDbDictionary
280
     1
281
     1
  0
DICTIONARY
  5
18E
330
2
100
AcDbDictionary
280
     1
281
     1
  3
ACAD_LAYERSTATES
360
18F
  0
DICTIONARY
  5
E6
330
10
100
AcDbDictionary
280
     1
281
     1
  0
DICTIONARY
  5
2E3
330
2E2
100
AcDbDictionary
280
     1
281
     1
  0
DICTIONARY
  5
2E5
330
2E4
100
AcDbDictionary
280
     1
281
     1
  0
DICTIONARY
  5
2E7
330
2E6
100
AcDbDictionary
280
     1
281
     1
  0
DICTIONARY
  5
2E9
330
2E8
100
AcDbDictionary
280
     1
281
     1
  0
DICTIONARY
  5
2EB
330
2EA
100
AcDbDictionary
280
     1
281
     1
  0
DICTIONARY
  5
2ED
330
2EC
100
AcDbDictionary
280
     1
281
     1
  0
DICTIONARY
  5
2EF
330
2EE
100
AcDbDictionary
280
     1
281
     1
  0
DICTIONARY
  5
2F1
330
2F0
100
AcDbDictionary
280
     1
281
     1
  0
DICTIONARY
  5
2F3
330
2F2
100
AcDbDictionary
280
     1
281
     1
  0
DICTIONARY
  5
2F5
330
2F4
100
AcDbDictionary
280
     1
281
     1
  0
DICTIONARY
  5
683
330
682
100
AcDbDictionary
280
     1
281
     1
  0
DICTIONARY
  5
15D
330
1F
100
AcDbDictionary
280
     1
281
     1
  3
ACAD_SORTENTS
360
2983
  0
DICTIONARY
  5
1F86
330
1F85
100
AcDbDictionary
280
     1
281
     1
  3
ACAD_SORTENTS
360
1F87
  0
DICTIONARY
  5
27E2
330
273A
100
AcDbDictionary
280
     1
281
     1
  3
ACAD_MTEXT_2008_RT
360
2C62
  0
XRECORD
  5
1A5
102
{ACAD_REACTORS
330
C
102
}
330
C
100
AcDbXrecord
280
     1
300
ACDLT
300
2017
300
86604ACDLT_2017_0F
  0
DICTIONARY
  5
73
102
{ACAD_REACTORS
330
C
102
}
330
C
100
AcDbDictionary
281
     1
  0
DICTIONARY
  5
1AB
102
{ACAD_REACTORS
330
C
102
}
330
C
100
AcDbDictionary
281
     1
  3
Imperial24
350
1AC
  3
Metric50
350
2FF
  0
DICTIONARY
  5
D
102
{ACAD_REACTORS
330
C
102
}
330
C
100
AcDbDictionary
281
     1
  0
DICTIONARY
  5
1A
102
{ACAD_REACTORS
330
C
102
}
330
C
100
AcDbDictionary
281
     1
  3
Model
350
22
  3
レイアウト1
350
59
  3
レイアウト2
350
5E
  0
DICTIONARY
  5
72
102
{ACAD_REACTORS
330
C
102
}
330
C
100
AcDbDictionary
281
     1
  3
ByBlock
350
97
  3
ByLayer
350
96
  3
Global
350
98
  0
DICTIONARY
  5
D7
102
{ACAD_REACTORS
330
C
102
}
330
C
100
AcDbDictionary
281
     1
  3
Standard
350
D8
  0
DICTIONARY
  5
17
102
{ACAD_REACTORS
330
C
102
}
330
C
100
AcDbDictionary
281
     1
  3
Standard
350
18
  0
DICTIONARY
  5
19
102
{ACAD_REACTORS
330
C
102
}
330
C
100
AcDbDictionary
281
     1
  0
ACDBDICTIONARYWDFLT
  5
E
102
{ACAD_REACTORS
330
C
102
}
330
C
100
AcDbDictionary
281
     1
  3
Normal
350
F
  3
スタイル 1
350
2FD
100
AcDbDictionaryWithDefault
340
F
  0
DICTIONARY
  5
B6
102
{ACAD_REACTORS
330
C
102
}
330
C
100
AcDbDictionary
281
     1
  3
A0
350
B7
  3
A1
350
124
  3
A2
350
125
  3
A3
350
126
  3
A4
350
127
  3
A5
350
128
  3
A6
350
129
  3
A7
350
12A
  3
A8
350
12B
  3
A9
350
12C
  3
B0
350
12D
  3
B1
350
12E
  3
B2
350
12F
  3
B3
350
130
  3
B4
350
131
  3
B5
350
132
  3
B6
350
133
  3
B7
350
134
  3
B8
350
135
  3
B9
350
136
  3
C0
350
137
  3
C1
350
138
  3
C2
350
139
  3
C3
350
13A
  3
C4
350
13B
  3
C5
350
13C
  3
C6
350
13D
  3
C7
350
13E
  3
C8
350
13F
  3
C9
350
140
  3
D0
350
141
  3
D1
350
142
  3
D2
350
143
  0
DICTIONARY
  5
1A8
102
{ACAD_REACTORS
330
C
102
}
330
C
100
AcDbDictionary
281
     1
  3
Imperial24
350
1AA
  3
Metric50
350
2FE
  0
DICTIONARY
  5
86
102
{ACAD_REACTORS
330
C
102
}
330
C
100
AcDbDictionary
281
     1
  3
Standard
350
87
  0
DICTIONARY
  5
99
102
{ACAD_REACTORS
330
C
102
}
330
C
100
AcDbDictionary
281
     1
  3
2dWireframe
350
9F
  3
Basic
350
9E
  3
Brighten
350
A5
  3
ColorChange
350
A9
  3
Conceptual
350
A2
  3
Dim
350
A4
  3
EdgeColorOff
350
175
  3
Facepattern
350
A8
  3
Flat
350
9A
  3
FlatWithEdges
350
9B
  3
Gouraud
350
9C
  3
GouraudWithEdges
350
9D
  3
Hidden
350
A1
  3
JitterOff
350
173
  3
Linepattern
350
A7
  3
OverhangOff
350
174
  3
Realistic
350
A3
  3
Shaded
350
182
  3
Shaded with edges
350
181
  3
Shades of Gray
350
17E
  3
Sketchy
350
17F
  3
Thicken
350
A6
  3
Wireframe
350
A0
  3
X-Ray
350
180
  0
XRECORD
  5
2C63
102
{ACAD_REACTORS
330
C
102
}
330
C
100
AcDbXrecord
280
     1
 90
        1
330
87
330
273A
  0
DICTIONARY
  5
66
102
{ACAD_REACTORS
330
C
102
}
330
C
100
AcDbDictionary
281
     1
  3
CANNOSCALE
350
F0
  3
CMLEADERSTYLE
350
EF
  3
CTABLESTYLE
350
89
  3
CVIEWDETAILSTYLE
350
1B7
  3
CVIEWSECTIONSTYLE
350
1B8
  3
DIMASSOC
350
67
  3
HIDETEXT
350
6B
  3
LAYEREVAL
350
14D
  3
LAYERNOTIFY
350
14E
  3
LIGHTINGUNITS
350
537
  3
MSLTSCALE
350
536
  0
DICTIONARY
  5
2C69
102
{ACAD_REACTORS
330
C
102
}
330
C
100
AcDbDictionary
281
     1
  3
AcDsRecords
350
2C6B
  3
AcDsSchemas
350
2C6A
1001
ACAD
1070
     2
  0
DICTIONARY
  5
18F
102
{ACAD_REACTORS
330
18E
102
}
330
18E
100
AcDbDictionary
281
     1
  0
SORTENTSTABLE
  5
2983
102
{ACAD_REACTORS
330
15D
102
}
330
15D
100
AcDbSortentsTable
330
1F
331
1CA5
  5
2724
331
1CA1
  5
1C89
331
3FC
  5
454
331
26F7
  5
26D9
331
26F3
  5
26D5
331
26EF
  5
26D1
331
26EB
  5
26CD
331
1BEF
  5
2714
331
1C74
  5
1C5F
331
1BEB
  5
1BE6
331
1C70
  5
1C5B
331
1BE7
  5
1B97
331
1BE3
  5
270F
331
1C6C
  5
1C57
331
1C68
  5
1C53
331
2BA2
  5
2709
331
1C9D
  5
1C85
331
1C99
  5
1C81
331
1C95
  5
1C7D
331
1C91
  5
2721
331
3C8
  5
3CA
331
3C4
  5
3C6
331
3C0
  5
3C2
331
26E7
  5
2662
331
26E3
  5
1DDB
331
2720
  5
2702
331
26DF
  5
1CB4
331
271C
  5
26FE
331
26DB
  5
1CB0
331
2718
  5
26FA
331
1B97
  5
270E
331
1C64
  5
1C4F
331
1B93
  5
1B94
331
1C60
  5
1C4B
331
1B8F
  5
1B90
331
1C5C
  5
1BFD
331
1B8B
  5
1B8D
331
1C58
  5
1BF8
331
1DDD
  5
2BA2
331
1DD9
  5
2984
331
1B81
  5
1B83
331
2717
  5
26F9
331
2713
  5
26F5
331
270F
  5
26F1
331
270B
  5
26ED
331
1C57
  5
1BF7
331
1C53
  5
1BF3
331
3BC
  5
3BE
331
1C4F
  5
1BEF
331
3B8
  5
3BA
331
1C8C
  5
1C77
331
1C4B
  5
1BEB
331
1C88
  5
1C73
331
26D4
  5
1CA9
331
26D0
  5
1CA5
331
1CB1
  5
1C97
331
1B7D
  5
1B7F
331
454
  5
1B6E
331
1B79
  5
1B7B
331
1B75
  5
1B77
331
1B71
  5
1B73
331
2707
  5
26E9
331
2703
  5
26E5
331
26FF
  5
26E1
331
26FB
  5
26DD
331
3B4
  5
3B6
331
3B0
  5
3B2
331
1BFB
  5
2720
331
1C84
  5
1C6F
331
1BF7
  5
271C
331
1C80
  5
1C6B
331
1BF3
  5
2718
331
1C7C
  5
1C67
331
26CC
  5
1CA0
331
1C78
  5
1C63
331
1CAC
  5
1C92
331
1CA8
  5
1C8E
331
1CA0
  5
1C88
331
26F6
  5
26D8
331
26F2
  5
26D4
331
26EE
  5
26D0
331
26EA
  5
26CC
331
1BEE
  5
2713
331
1C77
  5
1C62
331
1C73
  5
1C5E
331
1BEA
  5
1BE5
331
1C6F
  5
1C5A
331
1BE6
  5
1B96
331
1C6B
  5
1C56
331
2BA1
  5
2708
331
1C9C
  5
1C84
331
1C98
  5
1C80
331
1C94
  5
2723
331
1C90
  5
1C7B
331
3CB
  5
3FC
331
3C7
  5
3C9
331
3C3
  5
3C5
331
26E6
  5
2632
331
2723
  5
2705
331
26E2
  5
1DD9
331
271F
  5
2701
331
26DE
  5
1CB3
331
271B
  5
26FD
331
26DA
  5
1CAF
331
1B96
  5
270D
331
1C67
  5
1C52
331
1C63
  5
1C4E
331
1B92
  5
1B93
331
1B8E
  5
270A
331
1C5F
  5
1C4A
331
1C5B
  5
1BFB
331
1B8A
  5
1B8C
331
1DDC
  5
2BA1
331
1DC0
  5
1C9B
331
1B84
  5
1B8B
331
1B80
  5
1B82
331
2716
  5
26F8
331
2712
  5
26F4
331
270E
  5
26F0
331
270A
  5
26EC
331
1C56
  5
1BF6
331
3BF
  5
3C1
331
1C52
  5
1BF2
331
3BB
  5
3BD
331
1C8F
  5
1C7A
331
1C4E
  5
1BEE
331
1C8B
  5
1C76
331
1C4A
  5
1BEA
331
26D7
  5
1CAC
331
26D3
  5
1CA8
331
1CB4
  5
1C9A
331
1CB0
  5
1C96
331
1B7C
  5
1B7E
331
1B78
  5
1B7A
331
1B74
  5
1B76
331
1B70
  5
1B72
331
2706
  5
26E8
331
2702
  5
26E4
331
26FE
  5
26E0
331
26FA
  5
26DC
331
3B7
  5
3B9
331
3B3
  5
3B5
331
1C87
  5
1C72
331
1BFA
  5
271F
331
1C83
  5
1C6E
331
1BF6
  5
271B
331
1C7F
  5
1C6A
331
1BF2
  5
2717
331
26CF
  5
1CA3
331
1C7B
  5
1C66
331
26CB
  5
1C9F
331
2984
  5
3B0
331
1CAF
  5
1C95
331
1CAB
  5
1C91
331
1CA7
  5
1C8D
331
1CA3
  5
1C8B
331
1B6F
  5
1B71
331
3D2
  5
402
331
26F5
  5
26D7
331
26F1
  5
26D3
331
26ED
  5
26CF
331
273A
  5
2706
331
26E9
  5
26AF
331
1BED
  5
2712
331
1C76
  5
1C61
331
1C72
  5
1C5D
331
1BE9
  5
1BE4
331
1C6E
  5
1C59
331
1BE5
  5
1B95
331
1C6A
  5
1C55
331
2632
  5
1C9C
331
1C9F
  5
1C87
331
1C9B
  5
1C83
331
1C97
  5
1C7F
331
1C93
  5
1C7C
331
3CA
  5
3D2
331
3C6
  5
3C8
331
3C2
  5
3C4
331
26E5
  5
1DDD
331
2722
  5
2704
331
26E1
  5
1DC0
331
271E
  5
2700
331
26DD
  5
1CB2
331
271A
  5
26FC
331
26D9
  5
1CAE
331
1B95
  5
270C
331
1C66
  5
1C51
331
1C62
  5
1C4D
331
1B91
  5
1B92
331
1C5E
  5
1C49
331
1B8D
  5
1B8F
331
1C5A
  5
1BFA
331
1DDB
  5
2A07
331
1B83
  5
1B8A
331
2715
  5
26F7
331
2711
  5
26F3
331
270D
  5
26EF
331
2709
  5
26EB
331
1C55
  5
1BF5
331
3BE
  5
3C0
331
1C51
  5
1BF1
331
3BA
  5
3BC
331
1C8E
  5
1C79
331
1C4D
  5
1BED
331
1C8A
  5
1C75
331
1C49
  5
1BE9
331
26D6
  5
1CAB
331
26D2
  5
1CA7
331
1D83
  5
273A
331
1CB3
  5
1C99
331
1B7F
  5
1B81
331
1B7B
  5
1B7D
331
1B77
  5
1B79
331
1B73
  5
1B75
331
402
  5
455
331
2705
  5
26E7
331
2701
  5
26E3
331
26FD
  5
26DF
331
26F9
  5
26DB
331
3B6
  5
3B8
331
3B2
  5
3B4
331
1C86
  5
1C71
331
1BFD
  5
1BE7
331
1BF9
  5
271E
331
1C82
  5
1C6D
331
1BF5
  5
271A
331
1C7E
  5
1C69
331
1BF1
  5
2716
331
26CE
  5
1CA2
331
1C7A
  5
1C65
331
26CA
  5
1C9E
331
267E
  5
1C9D
331
1CAE
  5
1C94
331
1CAA
  5
1C90
331
1CA6
  5
1C8C
331
1CA2
  5
1C8A
331
1B6E
  5
1B70
331
26F4
  5
26D6
331
26F0
  5
26D2
331
26EC
  5
26CE
331
26E8
  5
267F
331
1BEC
  5
2711
331
1C75
  5
1C60
331
1C71
  5
1C5C
331
1BE8
  5
1BE3
331
1BE4
  5
2710
331
1C6D
  5
1C58
331
1C69
  5
1C54
331
2A07
  5
2707
331
1C9E
  5
1C86
331
1C9A
  5
1C82
331
1C96
  5
1C7E
331
1C92
  5
2722
331
3C9
  5
3CB
331
3C5
  5
3C7
331
3C1
  5
3C3
331
26E4
  5
1DDC
331
2721
  5
2703
331
26E0
  5
1D83
331
271D
  5
26FF
331
26DC
  5
1CB1
331
2719
  5
26FB
331
26D8
  5
1CAD
331
1B94
  5
270B
331
1C65
  5
1C50
331
1C61
  5
1C4C
331
1B90
  5
1B91
331
1C5D
  5
1C48
331
1B8C
  5
1B8E
331
1C59
  5
1BF9
331
1B82
  5
1B84
331
2714
  5
26F6
331
2710
  5
26F2
331
270C
  5
26EE
331
2708
  5
26EA
331
1C54
  5
1BF4
331
3BD
  5
3BF
331
1C50
  5
1BF0
331
3B9
  5
3BB
331
1C8D
  5
1C78
331
1C4C
  5
1BEC
331
1C89
  5
1C74
331
1C48
  5
1BE8
331
26D5
  5
1CAA
331
26D1
  5
1CA6
331
1CB2
  5
1C98
331
1B7E
  5
1B80
331
455
  5
1B6F
331
1B7A
  5
1B7C
331
1B76
  5
1B78
331
1B72
  5
1B74
331
2704
  5
26E6
331
2700
  5
26E2
331
26FC
  5
26DE
331
26F8
  5
26DA
331
3B5
  5
3B7
331
3B1
  5
3B3
331
1C85
  5
1C70
331
1BF8
  5
271D
331
1C81
  5
1C6C
331
1BF4
  5
2719
331
1C7D
  5
1C68
331
1BF0
  5
2715
331
26CD
  5
1CA1
331
1C79
  5
1C64
331
2982
  5
3B1
331
1CAD
  5
1C93
331
1CA9
  5
1C8F
  0
SORTENTSTABLE
  5
1F87
102
{ACAD_REACTORS
330
1F86
102
}
330
1F86
100
AcDbSortentsTable
330
1F85
  0
XRECORD
  5
2C62
102
{ACAD_REACTORS
330
27E2
102
}
330
27E2
100
AcDbXrecord
280
     1
 40
84301039.0
  1
\pxi20.668;SP-{\fMS PGothic|b0|i0|c128|p50;ビレクト　新築\P\pi7.5782;\W0.9;軒04（止縁ｷｬｯﾌﾟC15・止縁捨板15・通気軒見切15-25・パッキン材C）}
  0
ACDBDETAILVIEWSTYLE
  5
1AC
102
{ACAD_XDICTIONARY
360
2C9E
102
}
102
{ACAD_REACTORS
330
1AB
102
}
330
1AB
100
AcDbModelDocViewStyle
 70
     0
  3
Imperial24
290
     0
100
AcDbDetailViewStyle
 70
     0
 71
     0
 90
        3
 71
     1
340
11
 62
   256
 40
0.24
340
0
 62
   256
 40
0.24
300

 40
0.36
280
     3
 71
     2
340
16
 90
       25
 62
   256
 71
     3
340
11
 62
   256
 40
0.24
 90
        1
 40
0.75
 90
        1
300
%<\AcVar ViewType \f "%tc1">% %<\AcVar ViewDetailId>%\PSCALE %<\AcVar ViewScale \f "%sn">%
 71
     4
340
16
 90
       25
 62
   256
340
16
 90
       25
 62
   256
280
     0
  0
ACDBDETAILVIEWSTYLE
  5
2FF
102
{ACAD_XDICTIONARY
360
2CA2
102
}
102
{ACAD_REACTORS
330
1AB
102
}
330
1AB
100
AcDbModelDocViewStyle
 70
     0
  3
Metric50
290
     0
100
AcDbDetailViewStyle
 70
     0
 71
     0
 90
        3
 71
     1
340
11
 62
   256
 40
5.0
340
0
 62
   256
 40
5.0
300

 40
0.0
280
     1
 71
     2
340
16
 90
       25
 62
   256
 71
     3
340
11
 62
   256
 40
5.0
 90
        0
 40
15.0
 90
        1
300
%<\AcVar ViewDetailId>% (%<\AcVar ViewScale \f "%sn">%)
 71
     4
340
16
 90
       25
 62
   256
340
16
 90
       25
 62
   256
280
     0
  0
LAYOUT
  5
22
102
{ACAD_XDICTIONARY
360
194
102
}
102
{ACAD_REACTORS
330
1A
102
}
330
1A
100
AcDbPlotSettings
  1

  2
Adobe PDF.pc3
  4
A3
  6

 40
3.174999952316284
 41
3.174999952316284
 42
3.17498779296875
 43
3.17498779296875
 44
420.1583251953125
 45
297.0318298339844
 46
-3.102238401706472
 47
-3.163609709545426
 48
0.0
 49
0.0
140
0.0
141
0.0
142
1.0
143
2.0
 70
 11940
 72
     1
 73
     0
 74
     1
  7
monochrome.ctb
 75
     0
147
0.4893484404365136
 76
     0
 77
     2
 78
   300
148
0.0128083857496222
149
0.0090573584943741
100
AcDbLayout
  1
Model
 70
     1
 71
     0
 10
0.0
 20
0.0
 11
12.0
 21
9.0
 12
0.0
 22
0.0
 32
0.0
 14
0.0
 24
0.0
 34
0.0
 15
0.0
 25
0.0
 35
0.0
146
0.0
 13
0.0
 23
0.0
 33
0.0
 16
1.0
 26
0.0
 36
0.0
 17
0.0
 27
1.0
 37
0.0
 76
     0
330
1F
331
94
1001
ACAD_PSEXT
1000
Adobe PDF.pc3
1000
Adobe PDF Converter
1000
Documents\*.pdf
1000

1070
     0
  0
LAYOUT
  5
59
102
{ACAD_REACTORS
330
1A
102
}
330
1A
100
AcDbPlotSettings
  1

  2
None
  4

  6

 40
0.0
 41
0.0
 42
0.0
 43
0.0
 44
0.0
 45
0.0
 46
0.0
 47
0.0
 48
0.0
 49
0.0
140
0.0
141
0.0
142
1.0
143
1.0
 70
   688
 72
     0
 73
     0
 74
     5
  7

 75
    16
147
1.0
 76
     0
 77
     2
 78
   300
148
0.0
149
0.0
100
AcDbLayout
  1
レイアウト1
 70
     1
 71
     1
 10
0.0
 20
0.0
 11
12.0
 21
9.0
 12
0.0
 22
0.0
 32
0.0
 14
0.0
 24
0.0
 34
0.0
 15
0.0
 25
0.0
 35
0.0
146
0.0
 13
0.0
 23
0.0
 33
0.0
 16
1.0
 26
0.0
 36
0.0
 17
0.0
 27
1.0
 37
0.0
 76
     0
330
58
  0
LAYOUT
  5
5E
102
{ACAD_REACTORS
330
1A
102
}
330
1A
100
AcDbPlotSettings
  1

  2
None
  4

  6

 40
0.0
 41
0.0
 42
0.0
 43
0.0
 44
0.0
 45
0.0
 46
0.0
 47
0.0
 48
0.0
 49
0.0
140
0.0
141
0.0
142
1.0
143
1.0
 70
   688
 72
     0
 73
     0
 74
     5
  7

 75
    16
147
1.0
 76
     0
 77
     2
 78
   300
148
0.0
149
0.0
100
AcDbLayout
  1
レイアウト2
 70
     1
 71
     2
 10
0.0
 20
0.0
 11
12.0
 21
9.0
 12
0.0
 22
0.0
 32
0.0
 14
0.0
 24
0.0
 34
0.0
 15
0.0
 25
0.0
 35
0.0
146
0.0
 13
0.0
 23
0.0
 33
0.0
 16
1.0
 26
0.0
 36
0.0
 17
0.0
 27
1.0
 37
0.0
 76
     0
330
5D
  0
MATERIAL
  5
97
102
{ACAD_XDICTIONARY
360
188
102
}
102
{ACAD_REACTORS
330
72
102
}
330
72
100
AcDbMaterial
  1
ByBlock
 94
       63
  0
MATERIAL
  5
96
102
{ACAD_XDICTIONARY
360
186
102
}
102
{ACAD_REACTORS
330
72
102
}
330
72
100
AcDbMaterial
  1
ByLayer
 94
       63
  0
MATERIAL
  5
98
102
{ACAD_XDICTIONARY
360
110
102
}
102
{ACAD_REACTORS
330
72
102
}
330
72
100
AcDbMaterial
  1
Global
 43
0.0208000000566244
 43
0.0
 43
0.0
 43
0.0
 43
0.0
 43
0.0208000000566244
 43
0.0
 43
0.0
 43
0.0
 43
0.0
 43
1.0
 43
0.0
 43
0.0
 43
0.0
 43
0.0
 43
1.0
 49
0.0208000000566244
 49
0.0
 49
0.0
 49
0.0
 49
0.0
 49
0.0208000000566244
 49
0.0
 49
0.0
 49
0.0
 49
0.0
 49
1.0
 49
0.0
 49
0.0
 49
0.0
 49
0.0
 49
1.0
142
0.0208000000566244
142
0.0
142
0.0
142
0.0
142
0.0
142
0.0208000000566244
142
0.0
142
0.0
142
0.0
142
0.0
142
1.0
142
0.0
142
0.0
142
0.0
142
0.0
142
1.0
144
0.0208000000566244
144
0.0
144
0.0
144
0.0
144
0.0
144
0.0208000000566244
144
0.0
144
0.0
144
0.0
144
0.0
144
1.0
144
0.0
144
0.0
144
0.0
144
0.0
144
1.0
 94
       63
1001
ACAD
1070
    -1
1070
     3
1070
     0
1000

1071
        0
1070
     0
  0
MLEADERSTYLE
  5
D8
102
{ACAD_REACTORS
330
D7
102
}
330
D7
100
AcDbMLeaderStyle
179
     2
170
     2
171
     1
172
     0
 90
        2
 40
0.0
 41
0.0
173
     1
 91
-1056964608
340
14
 92
       -2
290
     1
 42
0.09
291
     1
 43
0.36
  3
Standard
 44
0.18
300

342
11
174
     1
178
     1
175
     1
176
     0
 93
-1056964608
 45
0.18
292
     0
297
     0
 46
0.18
 94
-1056964608
 47
1.0
 49
1.0
140
1.0
293
     1
141
0.0
294
     1
177
     0
142
1.0
295
     0
296
     0
143
0.125
271
     0
272
     9
273
     9
  0
MLINESTYLE
  5
18
102
{ACAD_REACTORS
330
17
102
}
330
17
100
AcDbMlineStyle
  2
STANDARD
 70
     0
  3

 62
   256
 51
90.0
 52
90.0
 71
     2
 49
0.5
 62
   256
  6
BYLAYER
 49
-0.5
 62
   256
  6
BYLAYER
  0
ACDBPLACEHOLDER
  5
F
102
{ACAD_REACTORS
330
E
102
}
330
E
  0
ACDBPLACEHOLDER
  5
2FD
102
{ACAD_REACTORS
330
E
102
}
330
E
  0
SCALE
  5
B7
102
{ACAD_REACTORS
330
B6
102
}
330
B6
100
AcDbScale
 70
     0
300
1:1
140
1.0
141
1.0
290
     1
  0
SCALE
  5
124
102
{ACAD_REACTORS
330
B6
102
}
330
B6
100
AcDbScale
 70
     0
300
1:2
140
1.0
141
2.0
290
     0
  0
SCALE
  5
125
102
{ACAD_REACTORS
330
B6
102
}
330
B6
100
AcDbScale
 70
     0
300
1:4
140
1.0
141
4.0
290
     0
  0
SCALE
  5
126
102
{ACAD_REACTORS
330
B6
102
}
330
B6
100
AcDbScale
 70
     0
300
1:5
140
1.0
141
5.0
290
     0
  0
SCALE
  5
127
102
{ACAD_REACTORS
330
B6
102
}
330
B6
100
AcDbScale
 70
     0
300
1:8
140
1.0
141
8.0
290
     0
  0
SCALE
  5
128
102
{ACAD_REACTORS
330
B6
102
}
330
B6
100
AcDbScale
 70
     0
300
1:10
140
1.0
141
10.0
290
     0
  0
SCALE
  5
129
102
{ACAD_REACTORS
330
B6
102
}
330
B6
100
AcDbScale
 70
     0
300
1:16
140
1.0
141
16.0
290
     0
  0
SCALE
  5
12A
102
{ACAD_REACTORS
330
B6
102
}
330
B6
100
AcDbScale
 70
     0
300
1:20
140
1.0
141
20.0
290
     0
  0
SCALE
  5
12B
102
{ACAD_REACTORS
330
B6
102
}
330
B6
100
AcDbScale
 70
     0
300
1:30
140
1.0
141
30.0
290
     0
  0
SCALE
  5
12C
102
{ACAD_REACTORS
330
B6
102
}
330
B6
100
AcDbScale
 70
     0
300
1:40
140
1.0
141
40.0
290
     0
  0
SCALE
  5
12D
102
{ACAD_REACTORS
330
B6
102
}
330
B6
100
AcDbScale
 70
     0
300
1:50
140
1.0
141
50.0
290
     0
  0
SCALE
  5
12E
102
{ACAD_REACTORS
330
B6
102
}
330
B6
100
AcDbScale
 70
     0
300
1:100
140
1.0
141
100.0
290
     0
  0
SCALE
  5
12F
102
{ACAD_REACTORS
330
B6
102
}
330
B6
100
AcDbScale
 70
     0
300
2:1
140
2.0
141
1.0
290
     0
  0
SCALE
  5
130
102
{ACAD_REACTORS
330
B6
102
}
330
B6
100
AcDbScale
 70
     0
300
4:1
140
4.0
141
1.0
290
     0
  0
SCALE
  5
131
102
{ACAD_REACTORS
330
B6
102
}
330
B6
100
AcDbScale
 70
     0
300
8:1
140
8.0
141
1.0
290
     0
  0
SCALE
  5
132
102
{ACAD_REACTORS
330
B6
102
}
330
B6
100
AcDbScale
 70
     0
300
10:1
140
10.0
141
1.0
290
     0
  0
SCALE
  5
133
102
{ACAD_REACTORS
330
B6
102
}
330
B6
100
AcDbScale
 70
     0
300
100:1
140
100.0
141
1.0
290
     0
  0
SCALE
  5
134
102
{ACAD_REACTORS
330
B6
102
}
330
B6
100
AcDbScale
 70
     0
300
1/128" = 1'-0"
140
0.0078125
141
12.0
290
     0
  0
SCALE
  5
135
102
{ACAD_REACTORS
330
B6
102
}
330
B6
100
AcDbScale
 70
     0
300
1/64" = 1'-0"
140
0.015625
141
12.0
290
     0
  0
SCALE
  5
136
102
{ACAD_REACTORS
330
B6
102
}
330
B6
100
AcDbScale
 70
     0
300
1/32" = 1'-0"
140
0.03125
141
12.0
290
     0
  0
SCALE
  5
137
102
{ACAD_REACTORS
330
B6
102
}
330
B6
100
AcDbScale
 70
     0
300
1/16" = 1'-0"
140
0.0625
141
12.0
290
     0
  0
SCALE
  5
138
102
{ACAD_REACTORS
330
B6
102
}
330
B6
100
AcDbScale
 70
     0
300
3/32" = 1'-0"
140
0.09375
141
12.0
290
     0
  0
SCALE
  5
139
102
{ACAD_REACTORS
330
B6
102
}
330
B6
100
AcDbScale
 70
     0
300
1/8" = 1'-0"
140
0.125
141
12.0
290
     0
  0
SCALE
  5
13A
102
{ACAD_REACTORS
330
B6
102
}
330
B6
100
AcDbScale
 70
     0
300
3/16" = 1'-0"
140
0.1875
141
12.0
290
     0
  0
SCALE
  5
13B
102
{ACAD_REACTORS
330
B6
102
}
330
B6
100
AcDbScale
 70
     0
300
1/4" = 1'-0"
140
0.25
141
12.0
290
     0
  0
SCALE
  5
13C
102
{ACAD_REACTORS
330
B6
102
}
330
B6
100
AcDbScale
 70
     0
300
3/8" = 1'-0"
140
0.375
141
12.0
290
     0
  0
SCALE
  5
13D
102
{ACAD_REACTORS
330
B6
102
}
330
B6
100
AcDbScale
 70
     0
300
1/2" = 1'-0"
140
0.5
141
12.0
290
     0
  0
SCALE
  5
13E
102
{ACAD_REACTORS
330
B6
102
}
330
B6
100
AcDbScale
 70
     0
300
3/4" = 1'-0"
140
0.75
141
12.0
290
     0
  0
SCALE
  5
13F
102
{ACAD_REACTORS
330
B6
102
}
330
B6
100
AcDbScale
 70
     0
300
1" = 1'-0"
140
1.0
141
12.0
290
     0
  0
SCALE
  5
140
102
{ACAD_REACTORS
330
B6
102
}
330
B6
100
AcDbScale
 70
     0
300
1-1/2" = 1'-0"
140
1.5
141
12.0
290
     0
  0
SCALE
  5
141
102
{ACAD_REACTORS
330
B6
102
}
330
B6
100
AcDbScale
 70
     0
300
3" = 1'-0"
140
3.0
141
12.0
290
     0
  0
SCALE
  5
142
102
{ACAD_REACTORS
330
B6
102
}
330
B6
100
AcDbScale
 70
     0
300
6" = 1'-0"
140
6.0
141
12.0
290
     0
  0
SCALE
  5
143
102
{ACAD_REACTORS
330
B6
102
}
330
B6
100
AcDbScale
 70
     0
300
1'-0" = 1'-0"
140
12.0
141
12.0
290
     0
  0
ACDBSECTIONVIEWSTYLE
  5
1AA
102
{ACAD_XDICTIONARY
360
2C9C
102
}
102
{ACAD_REACTORS
330
1A8
102
}
330
1A8
100
AcDbModelDocViewStyle
 70
     0
  3
Imperial24
290
     0
100
AcDbSectionViewStyle
 70
     0
 71
     0
 90
       78
 71
     1
340
11
 62
   256
 40
0.24
340
0
340
0
 62
   256
 40
0.24
300
I, O, Q, S, X, Z
 40
0.48
 90
        3
 40
0.18
 90
        1
 71
     2
340
16
 90
       25
 62
   256
340
16
 90
       50
 62
   256
 40
0.24
 40
0.0
 40
0.24
 71
     3
340
11
 62
   256
 40
0.24
 90
        1
 40
0.75
 90
        1
300
%<\AcVar ViewType \f "%tc1">% %<\AcVar ViewSectionStartId>%-%<\AcVar ViewSectionEndId>%\PSCALE %<\AcVar ViewScale \f "%sn">%
 71
     4
 62
   256
 62
   257
300
ANSI31
 40
1.0
 90
        0
290
     0
290
     0
 90
        6
 40
0.0
 40
1.570796326794896
 40
0.2617993877991494
 40
1.308996938995747
 40
-0.2617993877991494
 40
1.832595714594046
  0
ACDBSECTIONVIEWSTYLE
  5
2FE
102
{ACAD_XDICTIONARY
360
2CA0
102
}
102
{ACAD_REACTORS
330
1A8
102
}
330
1A8
100
AcDbModelDocViewStyle
 70
     0
  3
Metric50
290
     0
100
AcDbSectionViewStyle
 70
     0
 71
     0
 90
      102
 71
     1
340
11
 62
   256
 40
5.0
340
0
340
0
 62
   256
 40
5.0
300
I, O, Q, S, X, Z
 40
10.0
 90
        0
 40
2.5
 90
        0
 71
     2
340
16
 90
       25
 62
   256
340
16
 90
       50
 62
   256
 40
5.0
 40
2.5
 40
5.0
 71
     3
340
11
 62
   256
 40
5.0
 90
        0
 40
15.0
 90
        1
300
%<\AcVar ViewSectionStartId>%-%<\AcVar ViewSectionEndId>% (%<\AcVar ViewScale \f "%sn">%)
 71
     4
 62
   256
 62
   257
300
ANSI31
 40
1.0
 90
        0
290
     0
290
     0
 90
        6
 40
0.0
 40
1.570796326794896
 40
0.2617993877991494
 40
1.308996938995747
 40
-0.2617993877991494
 40
1.832595714594046
  0
TABLESTYLE
  5
87
102
{ACAD_XDICTIONARY
360
104
102
}
102
{ACAD_REACTORS
330
86
102
}
330
86
100
AcDbTableStyle
280
     0
  3
Standard
 70
     0
 71
     0
 40
0.06
 41
0.06
280
     0
281
     0
  7
Standard
140
0.18
170
     2
 62
     0
 63
     7
283
     0
 90
      512
 91
        0
  1

274
    -2
284
     1
 64
     0
275
    -2
285
     1
 65
     0
276
    -2
286
     1
 66
     0
277
    -2
287
     1
 67
     0
278
    -2
288
     1
 68
     0
279
    -2
289
     1
 69
     0
  7
Standard
140
0.25
170
     5
 62
     0
 63
     7
283
     0
 90
      512
 91
        0
  1

274
    -2
284
     1
 64
     0
275
    -2
285
     1
 65
     0
276
    -2
286
     1
 66
     0
277
    -2
287
     1
 67
     0
278
    -2
288
     1
 68
     0
279
    -2
289
     1
 69
     0
  7
Standard
140
0.18
170
     5
 62
     0
 63
     7
283
     0
 90
      512
 91
        0
  1

274
    -2
284
     1
 64
     0
275
    -2
285
     1
 65
     0
276
    -2
286
     1
 66
     0
277
    -2
287
     1
 67
     0
278
    -2
288
     1
 68
     0
279
    -2
289
     1
 69
     0
  0
VISUALSTYLE
  5
9F
102
{ACAD_XDICTIONARY
360
2C76
102
}
102
{ACAD_REACTORS
330
99
102
}
330
99
100
AcDbVisualStyle
  2
2dWireframe
 70
     4
177
     2
291
     0
 71
     0
176
     1
 72
     2
176
     1
 73
     1
176
     1
 90
        0
176
     1
 40
0.6
176
     1
 41
30.0
176
     1
 63
     7
421
 16777215
176
     1
 74
     1
176
     1
 91
        4
176
     1
 64
     7
176
     1
 65
   257
176
     1
 75
     1
176
     1
175
     1
176
     1
 42
1.0
176
     1
 92
        0
176
     1
 66
   257
176
     1
 43
1.0
176
     1
 76
     1
176
     1
 77
     6
176
     1
 78
     2
176
     1
 67
     7
176
     1
 79
     5
176
     1
170
     0
176
     1
171
     0
176
     1
290
     0
176
     1
 93
        1
176
     1
 44
0.0
176
     1
173
     0
176
     1
1001
ACAD
1000
AcDbSavedByObjectVersion
1070
     0
  0
VISUALSTYLE
  5
9E
102
{ACAD_XDICTIONARY
360
2C74
102
}
102
{ACAD_REACTORS
330
99
102
}
330
99
100
AcDbVisualStyle
  2
Basic
 70
     7
177
     2
291
     1
 71
     1
176
     1
 72
     0
176
     1
 73
     1
176
     1
 90
        0
176
     1
 40
0.6
176
     1
 41
30.0
176
     1
 63
     7
421
 16777215
176
     1
 74
     0
176
     1
 91
        4
176
     1
 64
     7
176
     1
 65
   257
176
     1
 75
     1
176
     1
175
     1
176
     1
 42
1.0
176
     1
 92
        8
176
     1
 66
     7
176
     1
 43
1.0
176
     1
 76
     1
176
     1
 77
     6
176
     1
 78
     2
176
     1
 67
     7
176
     1
 79
     5
176
     1
170
     0
176
     1
171
     0
176
     1
290
     0
176
     1
 93
        1
176
     1
 44
0.0
176
     1
173
     0
176
     1
1001
ACAD
1000
AcDbSavedByObjectVersion
1070
     0
  0
VISUALSTYLE
  5
A5
102
{ACAD_XDICTIONARY
360
2C82
102
}
102
{ACAD_REACTORS
330
99
102
}
330
99
100
AcDbVisualStyle
  2
Brighten
 70
    12
177
     2
291
     1
 71
     2
176
     1
 72
     2
176
     1
 73
     1
176
     1
 90
        0
176
     1
 40
0.6
176
     1
 41
30.0
176
     1
 63
     7
421
 16777215
176
     1
 74
     1
176
     1
 91
        4
176
     1
 64
     7
176
     1
 65
   257
176
     1
 75
     1
176
     1
175
     1
176
     1
 42
1.0
176
     1
 92
        8
176
     1
 66
     7
176
     1
 43
1.0
176
     1
 76
     1
176
     1
 77
     6
176
     1
 78
     2
176
     1
 67
     7
176
     1
 79
     5
176
     1
170
     0
176
     1
171
     0
176
     1
290
     0
176
     1
 93
        1
176
     1
 44
50.0
176
     1
173
     0
176
     1
1001
ACAD
1000
AcDbSavedByObjectVersion
1070
     0
  0
VISUALSTYLE
  5
A9
102
{ACAD_XDICTIONARY
360
2C8A
102
}
102
{ACAD_REACTORS
330
99
102
}
330
99
100
AcDbVisualStyle
  2
ColorChange
 70
    16
177
     2
291
     1
 71
     2
176
     1
 72
     2
176
     1
 73
     3
176
     1
 90
        0
176
     1
 40
0.6
176
     1
 41
30.0
176
     1
 63
     8
421
  8421504
176
     1
 74
     1
176
     1
 91
        4
176
     1
 64
     7
176
     1
 65
   257
176
     1
 75
     1
176
     1
175
     1
176
     1
 42
1.0
176
     1
 92
        8
176
     1
 66
     8
424
  8421504
176
     1
 43
1.0
176
     1
 76
     1
176
     1
 77
     6
176
     1
 78
     2
176
     1
 67
     7
176
     1
 79
     5
176
     1
170
     0
176
     1
171
     0
176
     1
290
     0
176
     1
 93
        1
176
     1
 44
0.0
176
     1
173
     0
176
     1
1001
ACAD
1000
AcDbSavedByObjectVersion
1070
     0
  0
VISUALSTYLE
  5
A2
102
{ACAD_XDICTIONARY
360
2C7C
102
}
102
{ACAD_REACTORS
330
99
102
}
330
99
100
AcDbVisualStyle
  2
Conceptual
 70
     9
177
     2
291
     0
 71
     3
176
     1
 72
     2
176
     1
 73
     1
176
     1
 90
        0
176
     1
 40
0.6
176
     1
 41
30.0
176
     1
 63
     7
421
 16777215
176
     1
 74
     2
176
     1
 91
        2
176
     1
 64
     7
176
     1
 65
   257
176
     1
 75
     1
176
     1
175
     1
176
     1
 42
40.0
176
     1
 92
        8
176
     1
 66
     7
176
     1
 43
1.0
176
     1
 76
     1
176
     1
 77
     6
176
     1
 78
     2
176
     1
 67
     7
176
     1
 79
     3
176
     1
170
     0
176
     1
171
     0
176
     1
290
     0
176
     1
 93
        1
176
     1
 44
0.0
176
     1
173
     0
176
     1
1001
ACAD
1000
AcDbSavedByObjectVersion
1070
     0
  0
VISUALSTYLE
  5
A4
102
{ACAD_XDICTIONARY
360
2C80
102
}
102
{ACAD_REACTORS
330
99
102
}
330
99
100
AcDbVisualStyle
  2
Dim
 70
    11
177
     2
291
     1
 71
     2
176
     1
 72
     2
176
     1
 73
     1
176
     1
 90
        0
176
     1
 40
0.6
176
     1
 41
30.0
176
     1
 63
     7
421
 16777215
176
     1
 74
     1
176
     1
 91
        4
176
     1
 64
     7
176
     1
 65
   257
176
     1
 75
     1
176
     1
175
     1
176
     1
 42
1.0
176
     1
 92
        8
176
     1
 66
     7
176
     1
 43
1.0
176
     1
 76
     1
176
     1
 77
     6
176
     1
 78
     2
176
     1
 67
     7
176
     1
 79
     5
176
     1
170
     0
176
     1
171
     0
176
     1
290
     0
176
     1
 93
        1
176
     1
 44
-50.0
176
     1
173
     0
176
     1
1001
ACAD
1000
AcDbSavedByObjectVersion
1070
     0
  0
VISUALSTYLE
  5
175
102
{ACAD_XDICTIONARY
360
2C90
102
}
102
{ACAD_REACTORS
330
99
102
}
330
99
100
AcDbVisualStyle
  2
EdgeColorOff
 70
    22
177
     2
291
     1
 71
     2
176
     0
 72
     2
176
     0
 73
     0
176
     0
 90
        0
176
     0
 40
0.6
176
     0
 41
30.0
176
     0
 63
     7
421
 16777215
176
     0
 74
     1
176
     0
 91
        4
176
     0
 64
     7
176
     0
 65
   257
176
     0
 75
     1
176
     0
175
     1
176
     0
 42
1.0
176
     0
 92
        8
176
     2
 66
     7
176
     0
 43
1.0
176
     0
 76
     1
176
     0
 77
     6
176
     0
 78
     2
176
     0
 67
     7
176
     0
 79
     5
176
     0
170
     0
176
     0
171
     0
176
     0
290
     0
176
     0
 93
        1
176
     0
 44
0.0
176
     0
173
     0
176
     0
1001
ACAD
1000
AcDbSavedByObjectVersion
1070
     0
  0
VISUALSTYLE
  5
A8
102
{ACAD_XDICTIONARY
360
2C88
102
}
102
{ACAD_REACTORS
330
99
102
}
330
99
100
AcDbVisualStyle
  2
Facepattern
 70
    15
177
     2
291
     1
 71
     2
176
     1
 72
     2
176
     1
 73
     1
176
     1
 90
        0
176
     1
 40
0.6
176
     1
 41
30.0
176
     1
 63
     7
421
 16777215
176
     1
 74
     1
176
     1
 91
        4
176
     1
 64
     7
176
     1
 65
   257
176
     1
 75
     1
176
     1
175
     1
176
     1
 42
1.0
176
     1
 92
        8
176
     1
 66
     7
176
     1
 43
1.0
176
     1
 76
     1
176
     1
 77
     6
176
     1
 78
     2
176
     1
 67
     7
176
     1
 79
     5
176
     1
170
     0
176
     1
171
     0
176
     1
290
     0
176
     1
 93
        1
176
     1
 44
0.0
176
     1
173
     0
176
     1
1001
ACAD
1000
AcDbSavedByObjectVersion
1070
     0
  0
VISUALSTYLE
  5
9A
102
{ACAD_XDICTIONARY
360
2C6C
102
}
102
{ACAD_REACTORS
330
99
102
}
330
99
100
AcDbVisualStyle
  2
Flat
 70
     0
177
     2
291
     1
 71
     2
176
     1
 72
     1
176
     1
 73
     1
176
     1
 90
        2
176
     1
 40
0.6
176
     1
 41
30.0
176
     1
 63
     7
421
 16777215
176
     1
 74
     0
176
     1
 91
        0
176
     1
 64
     7
176
     1
 65
   257
176
     1
 75
     1
176
     1
175
     1
176
     1
 42
1.0
176
     1
 92
        8
176
     1
 66
     7
176
     1
 43
1.0
176
     1
 76
     1
176
     1
 77
     6
176
     1
 78
     2
176
     1
 67
     7
176
     1
 79
     5
176
     1
170
     0
176
     1
171
     0
176
     1
290
     0
176
     1
 93
       13
176
     1
 44
0.0
176
     1
173
     0
176
     1
1001
ACAD
1000
AcDbSavedByObjectVersion
1070
     0
  0
VISUALSTYLE
  5
9B
102
{ACAD_XDICTIONARY
360
2C6E
102
}
102
{ACAD_REACTORS
330
99
102
}
330
99
100
AcDbVisualStyle
  2
FlatWithEdges
 70
     1
177
     2
291
     1
 71
     2
176
     1
 72
     1
176
     1
 73
     1
176
     1
 90
        2
176
     1
 40
0.6
176
     1
 41
30.0
176
     1
 63
     7
421
 16777215
176
     1
 74
     1
176
     1
 91
        0
176
     1
 64
     7
176
     1
 65
   257
176
     1
 75
     1
176
     1
175
     1
176
     1
 42
1.0
176
     1
 92
        0
176
     1
 66
   257
176
     1
 43
1.0
176
     1
 76
     1
176
     1
 77
     6
176
     1
 78
     2
176
     1
 67
     7
176
     1
 79
     5
176
     1
170
     0
176
     1
171
     0
176
     1
290
     0
176
     1
 93
       13
176
     1
 44
0.0
176
     1
173
     0
176
     1
1001
ACAD
1000
AcDbSavedByObjectVersion
1070
     0
  0
VISUALSTYLE
  5
9C
102
{ACAD_XDICTIONARY
360
2C70
102
}
102
{ACAD_REACTORS
330
99
102
}
330
99
100
AcDbVisualStyle
  2
Gouraud
 70
     2
177
     2
291
     1
 71
     2
176
     1
 72
     2
176
     1
 73
     1
176
     1
 90
        2
176
     1
 40
0.6
176
     1
 41
30.0
176
     1
 63
     7
421
 16777215
176
     1
 74
     0
176
     1
 91
        0
176
     1
 64
     7
176
     1
 65
   257
176
     1
 75
     1
176
     1
175
     1
176
     1
 42
1.0
176
     1
 92
        0
176
     1
 66
     7
176
     1
 43
1.0
176
     1
 76
     1
176
     1
 77
     6
176
     1
 78
     2
176
     1
 67
     7
176
     1
 79
     5
176
     1
170
     0
176
     1
171
     0
176
     1
290
     0
176
     1
 93
       13
176
     1
 44
0.0
176
     1
173
     0
176
     1
1001
ACAD
1000
AcDbSavedByObjectVersion
1070
     0
  0
VISUALSTYLE
  5
9D
102
{ACAD_XDICTIONARY
360
2C72
102
}
102
{ACAD_REACTORS
330
99
102
}
330
99
100
AcDbVisualStyle
  2
GouraudWithEdges
 70
     3
177
     2
291
     1
 71
     2
176
     1
 72
     2
176
     1
 73
     1
176
     1
 90
        2
176
     1
 40
0.6
176
     1
 41
30.0
176
     1
 63
     7
421
 16777215
176
     1
 74
     1
176
     1
 91
        0
176
     1
 64
     7
176
     1
 65
   257
176
     1
 75
     1
176
     1
175
     1
176
     1
 42
1.0
176
     1
 92
        0
176
     1
 66
   257
176
     1
 43
1.0
176
     1
 76
     1
176
     1
 77
     6
176
     1
 78
     2
176
     1
 67
     7
176
     1
 79
     5
176
     1
170
     0
176
     1
171
     0
176
     1
290
     0
176
     1
 93
       13
176
     1
 44
0.0
176
     1
173
     0
176
     1
1001
ACAD
1000
AcDbSavedByObjectVersion
1070
     0
  0
VISUALSTYLE
  5
A1
102
{ACAD_XDICTIONARY
360
2C7A
102
}
102
{ACAD_REACTORS
330
99
102
}
330
99
100
AcDbVisualStyle
  2
Hidden
 70
     6
177
     2
291
     0
 71
     1
176
     1
 72
     2
176
     1
 73
     2
176
     1
 90
        0
176
     1
 40
0.6
176
     1
 41
30.0
176
     1
 63
     7
421
 16777215
176
     1
 74
     2
176
     1
 91
        2
176
     1
 64
     7
176
     1
 65
   257
176
     1
 75
     2
176
     1
175
     1
176
     1
 42
40.0
176
     1
 92
        0
176
     1
 66
   257
176
     1
 43
1.0
176
     1
 76
     1
176
     1
 77
     6
176
     1
 78
     2
176
     1
 67
     7
176
     1
 79
     3
176
     1
170
     0
176
     1
171
     0
176
     1
290
     0
176
     1
 93
        1
176
     1
 44
0.0
176
     1
173
     0
176
     1
1001
ACAD
1000
AcDbSavedByObjectVersion
1070
     0
  0
VISUALSTYLE
  5
173
102
{ACAD_XDICTIONARY
360
2C8C
102
}
102
{ACAD_REACTORS
330
99
102
}
330
99
100
AcDbVisualStyle
  2
JitterOff
 70
    20
177
     2
291
     1
 71
     2
176
     0
 72
     2
176
     0
 73
     0
176
     0
 90
        0
176
     0
 40
0.6
176
     0
 41
30.0
176
     0
 63
     7
421
 16777215
176
     0
 74
     1
176
     0
 91
        4
176
     0
 64
     7
176
     0
 65
   257
176
     0
 75
     1
176
     0
175
     1
176
     0
 42
1.0
176
     0
 92
       10
176
     2
 66
     7
176
     0
 43
1.0
176
     0
 76
     1
176
     0
 77
     6
176
     0
 78
     2
176
     0
 67
     7
176
     0
 79
     5
176
     0
170
     0
176
     0
171
     0
176
     0
290
     0
176
     0
 93
        1
176
     0
 44
0.0
176
     0
173
     0
176
     0
1001
ACAD
1000
AcDbSavedByObjectVersion
1070
     0
  0
VISUALSTYLE
  5
A7
102
{ACAD_XDICTIONARY
360
2C86
102
}
102
{ACAD_REACTORS
330
99
102
}
330
99
100
AcDbVisualStyle
  2
Linepattern
 70
    14
177
     2
291
     1
 71
     2
176
     1
 72
     2
176
     1
 73
     1
176
     1
 90
        0
176
     1
 40
0.6
176
     1
 41
30.0
176
     1
 63
     7
421
 16777215
176
     1
 74
     1
176
     1
 91
        4
176
     1
 64
     7
176
     1
 65
   257
176
     1
 75
     7
176
     1
175
     7
176
     1
 42
1.0
176
     1
 92
        8
176
     1
 66
     7
176
     1
 43
1.0
176
     1
 76
     1
176
     1
 77
     6
176
     1
 78
     2
176
     1
 67
     7
176
     1
 79
     5
176
     1
170
     0
176
     1
171
     0
176
     1
290
     0
176
     1
 93
        1
176
     1
 44
0.0
176
     1
173
     0
176
     1
1001
ACAD
1000
AcDbSavedByObjectVersion
1070
     0
  0
VISUALSTYLE
  5
174
102
{ACAD_XDICTIONARY
360
2C8E
102
}
102
{ACAD_REACTORS
330
99
102
}
330
99
100
AcDbVisualStyle
  2
OverhangOff
 70
    21
177
     2
291
     1
 71
     2
176
     0
 72
     2
176
     0
 73
     0
176
     0
 90
        0
176
     0
 40
0.6
176
     0
 41
30.0
176
     0
 63
     7
421
 16777215
176
     0
 74
     1
176
     0
 91
        4
176
     0
 64
     7
176
     0
 65
   257
176
     0
 75
     1
176
     0
175
     1
176
     0
 42
1.0
176
     0
 92
        9
176
     2
 66
     7
176
     0
 43
1.0
176
     0
 76
     1
176
     0
 77
     6
176
     0
 78
     2
176
     0
 67
     7
176
     0
 79
     5
176
     0
170
     0
176
     0
171
     0
176
     0
290
     0
176
     0
 93
        1
176
     0
 44
0.0
176
     0
173
     0
176
     0
1001
ACAD
1000
AcDbSavedByObjectVersion
1070
     0
  0
VISUALSTYLE
  5
A3
102
{ACAD_XDICTIONARY
360
2C7E
102
}
102
{ACAD_REACTORS
330
99
102
}
330
99
100
AcDbVisualStyle
  2
Realistic
 70
     8
177
     2
291
     0
 71
     2
176
     1
 72
     2
176
     1
 73
     0
176
     1
 90
        2
176
     1
 40
0.6
176
     1
 41
30.0
176
     1
 63
     7
421
 16777215
176
     1
 74
     0
176
     1
 91
        0
176
     1
 64
     7
176
     1
 65
   257
176
     1
 75
     1
176
     1
175
     1
176
     1
 42
1.0
176
     1
 92
        8
176
     1
 66
   257
176
     1
 43
1.0
176
     1
 76
     1
176
     1
 77
     6
176
     1
 78
     2
176
     1
 67
     7
176
     1
 79
     3
176
     1
170
     0
176
     1
171
     0
176
     1
290
     0
176
     1
 93
       13
176
     1
 44
0.0
176
     1
173
     0
176
     1
1001
ACAD
1000
AcDbSavedByObjectVersion
1070
     0
  0
VISUALSTYLE
  5
182
102
{ACAD_XDICTIONARY
360
2C9A
102
}
102
{ACAD_REACTORS
330
99
102
}
330
99
100
AcDbVisualStyle
  2
Shaded
 70
    27
177
     2
291
     0
 71
     2
176
     1
 72
     2
176
     1
 73
     1
176
     1
 90
        2
176
     1
 40
0.6
176
     1
 41
30.0
176
     1
 63
     7
421
 16777215
176
     1
 74
     0
176
     1
 91
        4
176
     1
 64
     7
176
     1
 65
   257
176
     1
 75
     1
176
     1
175
     1
176
     1
 42
1.0
176
     1
 92
        8
176
     1
 66
   257
176
     1
 43
1.0
176
     1
 76
     1
176
     1
 77
     6
176
     1
 78
     2
176
     1
 67
     8
425
  7895160
176
     1
 79
     3
176
     1
170
     0
176
     1
171
     0
176
     1
290
     0
176
     1
 93
        5
176
     1
 44
0.0
176
     1
173
     0
176
     1
1001
ACAD
1000
AcDbSavedByObjectVersion
1070
     0
  0
VISUALSTYLE
  5
181
102
{ACAD_XDICTIONARY
360
2C98
102
}
102
{ACAD_REACTORS
330
99
102
}
330
99
100
AcDbVisualStyle
  2
Shaded with edges
 70
    26
177
     2
291
     0
 71
     2
176
     1
 72
     2
176
     1
 73
     1
176
     1
 90
        2
176
     1
 40
0.6
176
     1
 41
30.0
176
     1
 63
     7
421
 16777215
176
     1
 74
     1
176
     1
 91
        2
176
     1
 64
     7
176
     1
 65
   257
176
     1
 75
     2
176
     1
175
     1
176
     1
 42
1.0
176
     1
 92
        8
176
     1
 66
   257
176
     1
 43
1.0
176
     1
 76
     1
176
     1
 77
     6
176
     1
 78
     2
176
     1
 67
     7
176
     1
 79
     3
176
     1
170
     0
176
     1
171
     0
176
     1
290
     0
176
     1
 93
        5
176
     1
 44
0.0
176
     1
173
     0
176
     1
1001
ACAD
1000
AcDbSavedByObjectVersion
1070
     0
  0
VISUALSTYLE
  5
17E
102
{ACAD_XDICTIONARY
360
2C92
102
}
102
{ACAD_REACTORS
330
99
102
}
330
99
100
AcDbVisualStyle
  2
Shades of Gray
 70
    23
177
     2
291
     0
 71
     2
176
     1
 72
     2
176
     1
 73
     3
176
     1
 90
        0
176
     1
 40
0.6
176
     1
 41
30.0
176
     1
 63
     7
421
 16777215
176
     1
 74
     2
176
     1
 91
        2
176
     1
 64
     7
176
     1
 65
     7
176
     1
 75
     1
176
     1
175
     1
176
     1
 42
40.0
176
     1
 92
        8
176
     1
 66
     7
176
     1
 43
1.0
176
     1
 76
     1
176
     1
 77
     6
176
     1
 78
     2
176
     1
 67
     7
176
     1
 79
     3
176
     1
170
     0
176
     1
171
     0
176
     1
290
     0
176
     1
 93
        1
176
     1
 44
0.0
176
     1
173
     0
176
     1
1001
ACAD
1000
AcDbSavedByObjectVersion
1070
     0
  0
VISUALSTYLE
  5
17F
102
{ACAD_XDICTIONARY
360
2C94
102
}
102
{ACAD_REACTORS
330
99
102
}
330
99
100
AcDbVisualStyle
  2
Sketchy
 70
    24
177
     2
291
     0
 71
     1
176
     1
 72
     2
176
     1
 73
     2
176
     1
 90
        0
176
     1
 40
0.6
176
     1
 41
30.0
176
     1
 63
     7
421
 16777215
176
     1
 74
     2
176
     1
 91
        2
176
     1
 64
     7
176
     1
 65
     7
176
     1
 75
     1
176
     1
175
     1
176
     1
 42
40.0
176
     1
 92
       11
176
     1
 66
     7
176
     1
 43
1.0
176
     1
 76
     1
176
     1
 77
     6
176
     1
 78
     2
176
     1
 67
     7
176
     1
 79
     6
176
     1
170
     0
176
     1
171
     0
176
     1
290
     0
176
     1
 93
        1
176
     1
 44
0.0
176
     1
173
     0
176
     1
1001
ACAD
1000
AcDbSavedByObjectVersion
1070
     0
  0
VISUALSTYLE
  5
A6
102
{ACAD_XDICTIONARY
360
2C84
102
}
102
{ACAD_REACTORS
330
99
102
}
330
99
100
AcDbVisualStyle
  2
Thicken
 70
    13
177
     2
291
     1
 71
     2
176
     1
 72
     2
176
     1
 73
     1
176
     1
 90
        0
176
     1
 40
0.6
176
     1
 41
30.0
176
     1
 63
     7
421
 16777215
176
     1
 74
     1
176
     1
 91
        4
176
     1
 64
     7
176
     1
 65
   257
176
     1
 75
     1
176
     1
175
     1
176
     1
 42
1.0
176
     1
 92
       12
176
     1
 66
     7
176
     1
 43
1.0
176
     1
 76
     1
176
     1
 77
     6
176
     1
 78
     2
176
     1
 67
     7
176
     1
 79
     5
176
     1
170
     0
176
     1
171
     0
176
     1
290
     0
176
     1
 93
        1
176
     1
 44
0.0
176
     1
173
     0
176
     1
1001
ACAD
1000
AcDbSavedByObjectVersion
1070
     0
  0
VISUALSTYLE
  5
A0
102
{ACAD_XDICTIONARY
360
2C78
102
}
102
{ACAD_REACTORS
330
99
102
}
330
99
100
AcDbVisualStyle
  2
Wireframe
 70
     5
177
     2
291
     0
 71
     0
176
     1
 72
     2
176
     1
 73
     0
176
     1
 90
        0
176
     1
 40
0.6
176
     1
 41
30.0
176
     1
 63
     7
421
 16777215
176
     1
 74
     1
176
     1
 91
        4
176
     1
 64
     7
176
     1
 65
   257
176
     1
 75
     1
176
     1
175
     1
176
     1
 42
1.0
176
     1
 92
        0
176
     1
 66
   257
176
     1
 43
1.0
176
     1
 76
     1
176
     1
 77
     6
176
     1
 78
     2
176
     1
 67
     7
176
     1
 79
     3
176
     1
170
     0
176
     1
171
     0
176
     1
290
     0
176
     1
 93
        1
176
     1
 44
0.0
176
     1
173
     0
176
     1
1001
ACAD
1000
AcDbSavedByObjectVersion
1070
     0
  0
VISUALSTYLE
  5
180
102
{ACAD_XDICTIONARY
360
2C96
102
}
102
{ACAD_REACTORS
330
99
102
}
330
99
100
AcDbVisualStyle
  2
X-Ray
 70
    25
177
     2
291
     0
 71
     2
176
     1
 72
     2
176
     1
 73
     1
176
     1
 90
        1
176
     1
 40
0.5
176
     1
 41
30.0
176
     1
 63
     7
421
 16777215
176
     1
 74
     1
176
     1
 91
        0
176
     1
 64
     7
176
     1
 65
   257
176
     1
 75
     1
176
     1
175
     1
176
     1
 42
1.0
176
     1
 92
        8
176
     1
 66
     7
176
     1
 43
1.0
176
     1
 76
     1
176
     1
 77
     6
176
     1
 78
     2
176
     1
 67
     7
176
     1
 79
     3
176
     1
170
     0
176
     1
171
     0
176
     1
290
     0
176
     1
 93
       13
176
     1
 44
0.0
176
     1
173
     0
176
     1
1001
ACAD
1000
AcDbSavedByObjectVersion
1070
     0
  0
DICTIONARYVAR
  5
F0
102
{ACAD_REACTORS
330
66
102
}
330
66
100
DictionaryVariables
280
     0
  1
1:1
  0
DICTIONARYVAR
  5
EF
102
{ACAD_REACTORS
330
66
102
}
330
66
100
DictionaryVariables
280
     0
  1
STANDARD
  0
DICTIONARYVAR
  5
89
102
{ACAD_REACTORS
330
66
102
}
330
66
100
DictionaryVariables
280
     0
  1
STANDARD
  0
DICTIONARYVAR
  5
1B7
102
{ACAD_REACTORS
330
66
102
}
330
66
100
DictionaryVariables
280
     0
  1
Imperial24
  0
DICTIONARYVAR
  5
1B8
102
{ACAD_REACTORS
330
66
102
}
330
66
100
DictionaryVariables
280
     0
  1
Imperial24
  0
DICTIONARYVAR
  5
67
102
{ACAD_REACTORS
330
66
102
}
330
66
100
DictionaryVariables
280
     0
  1
2
  0
DICTIONARYVAR
  5
6B
102
{ACAD_REACTORS
330
66
102
}
330
66
100
DictionaryVariables
280
     0
  1
1
  0
DICTIONARYVAR
  5
14D
102
{ACAD_REACTORS
330
66
102
}
330
66
100
DictionaryVariables
280
     0
  1
0
  0
DICTIONARYVAR
  5
14E
102
{ACAD_REACTORS
330
66
102
}
330
66
100
DictionaryVariables
280
     0
  1
0
  0
DICTIONARYVAR
  5
537
102
{ACAD_REACTORS
330
66
102
}
330
66
100
DictionaryVariables
280
     0
  1
2
  0
DICTIONARYVAR
  5
536
102
{ACAD_REACTORS
330
66
102
}
330
66
100
DictionaryVariables
280
     0
  1
1
  0
DICTIONARY
  5
2C6B
102
{ACAD_REACTORS
330
2C69
102
}
330
2C69
100
AcDbDictionary
281
     1
  0
DICTIONARY
  5
2C6A
102
{ACAD_REACTORS
330
2C69
102
}
330
2C69
100
AcDbDictionary
281
     1
  3
2178892158784
350
2C64
  3
2178892158800
350
2C65
  3
2178892158816
350
2C66
  3
2178892158832
350
2C67
  3
2178988222464
350
2C68
  0
DICTIONARY
  5
2C9E
330
1AC
100
AcDbDictionary
280
     1
281
     1
  3
ACAD_XREC_ROUNDTRIP
360
2C9F
  0
DICTIONARY
  5
2CA2
330
2FF
100
AcDbDictionary
280
     1
281
     1
  3
ACAD_XREC_ROUNDTRIP
360
2CA3
  0
DICTIONARY
  5
194
330
22
100
AcDbDictionary
280
     1
281
     1
  3
ADSK_XREC_LAYOUTTHUMBNAIL
360
460
  0
DICTIONARY
  5
188
330
97
100
AcDbDictionary
280
     1
281
     1
  3
FBXASSET
360
189
  0
DICTIONARY
  5
186
330
96
100
AcDbDictionary
280
     1
281
     1
  3
FBXASSET
360
187
  0
DICTIONARY
  5
110
330
98
100
AcDbDictionary
280
     1
281
     1
  3
BUMPTILE
360
112
  3
DIFFUSETILE
360
111
  3
FBXASSET
360
18A
  3
OPACITYTILE
360
113
  3
REFLECTIONTILE
360
114
  0
DICTIONARY
  5
2C9C
330
1AA
100
AcDbDictionary
280
     1
281
     1
  3
ACAD_XREC_ROUNDTRIP
360
2C9D
  0
DICTIONARY
  5
2CA0
330
2FE
100
AcDbDictionary
280
     1
281
     1
  3
ACAD_XREC_ROUNDTRIP
360
2CA1
  0
DICTIONARY
  5
104
330
87
100
AcDbDictionary
280
     1
281
     1
  3
ACAD_ROUNDTRIP_2008_TABLESTYLE_CELLSTYLEMAP
360
2C61
  0
DICTIONARY
  5
2C76
330
9F
100
AcDbDictionary
280
     1
281
     1
  3
ACAD_XREC_ROUNDTRIP
360
2C77
  0
DICTIONARY
  5
2C74
330
9E
100
AcDbDictionary
280
     1
281
     1
  3
ACAD_XREC_ROUNDTRIP
360
2C75
  0
DICTIONARY
  5
2C82
330
A5
100
AcDbDictionary
280
     1
281
     1
  3
ACAD_XREC_ROUNDTRIP
360
2C83
  0
DICTIONARY
  5
2C8A
330
A9
100
AcDbDictionary
280
     1
281
     1
  3
ACAD_XREC_ROUNDTRIP
360
2C8B
  0
DICTIONARY
  5
2C7C
330
A2
100
AcDbDictionary
280
     1
281
     1
  3
ACAD_XREC_ROUNDTRIP
360
2C7D
  0
DICTIONARY
  5
2C80
330
A4
100
AcDbDictionary
280
     1
281
     1
  3
ACAD_XREC_ROUNDTRIP
360
2C81
  0
DICTIONARY
  5
2C90
330
175
100
AcDbDictionary
280
     1
281
     1
  3
ACAD_XREC_ROUNDTRIP
360
2C91
  0
DICTIONARY
  5
2C88
330
A8
100
AcDbDictionary
280
     1
281
     1
  3
ACAD_XREC_ROUNDTRIP
360
2C89
  0
DICTIONARY
  5
2C6C
330
9A
100
AcDbDictionary
280
     1
281
     1
  3
ACAD_XREC_ROUNDTRIP
360
2C6D
  0
DICTIONARY
  5
2C6E
330
9B
100
AcDbDictionary
280
     1
281
     1
  3
ACAD_XREC_ROUNDTRIP
360
2C6F
  0
DICTIONARY
  5
2C70
330
9C
100
AcDbDictionary
280
     1
281
     1
  3
ACAD_XREC_ROUNDTRIP
360
2C71
  0
DICTIONARY
  5
2C72
330
9D
100
AcDbDictionary
280
     1
281
     1
  3
ACAD_XREC_ROUNDTRIP
360
2C73
  0
DICTIONARY
  5
2C7A
330
A1
100
AcDbDictionary
280
     1
281
     1
  3
ACAD_XREC_ROUNDTRIP
360
2C7B
  0
DICTIONARY
  5
2C8C
330
173
100
AcDbDictionary
280
     1
281
     1
  3
ACAD_XREC_ROUNDTRIP
360
2C8D
  0
DICTIONARY
  5
2C86
330
A7
100
AcDbDictionary
280
     1
281
     1
  3
ACAD_XREC_ROUNDTRIP
360
2C87
  0
DICTIONARY
  5
2C8E
330
174
100
AcDbDictionary
280
     1
281
     1
  3
ACAD_XREC_ROUNDTRIP
360
2C8F
  0
DICTIONARY
  5
2C7E
330
A3
100
AcDbDictionary
280
     1
281
     1
  3
ACAD_XREC_ROUNDTRIP
360
2C7F
  0
DICTIONARY
  5
2C9A
330
182
100
AcDbDictionary
280
     1
281
     1
  3
ACAD_XREC_ROUNDTRIP
360
2C9B
  0
DICTIONARY
  5
2C98
330
181
100
AcDbDictionary
280
     1
281
     1
  3
ACAD_XREC_ROUNDTRIP
360
2C99
  0
DICTIONARY
  5
2C92
330
17E
100
AcDbDictionary
280
     1
281
     1
  3
ACAD_XREC_ROUNDTRIP
360
2C93
  0
DICTIONARY
  5
2C94
330
17F
100
AcDbDictionary
280
     1
281
     1
  3
ACAD_XREC_ROUNDTRIP
360
2C95
  0
DICTIONARY
  5
2C84
330
A6
100
AcDbDictionary
280
     1
281
     1
  3
ACAD_XREC_ROUNDTRIP
360
2C85
  0
DICTIONARY
  5
2C78
330
A0
100
AcDbDictionary
280
     1
281
     1
  3
ACAD_XREC_ROUNDTRIP
360
2C79
  0
DICTIONARY
  5
2C96
330
180
100
AcDbDictionary
280
     1
281
     1
  3
ACAD_XREC_ROUNDTRIP
360
2C97
  0
XRECORD
  5
2C64
102
{ACAD_REACTORS
330
2C6A
102
}
330
2C6A
100
AcDbXrecord
280
     1
  1
AcDb_Thumbnail_Schema
102
{ATTRRECORD
341
2C65
  2
AcDbDs::TreatedAsObjectData
280
     1
291
     1
102
ATTRRECORD}
102
{ATTRRECORD
341
2C66
  2
AcDbDs::Legacy
280
     1
291
     1
102
ATTRRECORD}
  2
AcDbDs::ID
280
    10
 91
        8
102
{ATTRRECORD
341
2C67
  2
AcDs:Indexable
280
     1
291
     1
102
ATTRRECORD}
102
{ATTRRECORD
341
2C68
  2
AcDbDs::HandleAttribute
280
     7
282
     1
102
ATTRRECORD}
  2
Thumbnail_Data
280
    15
 91
        0
  0
XRECORD
  5
2C65
102
{ACAD_REACTORS
330
2C6A
102
}
330
2C6A
100
AcDbXrecord
280
     1
  1
AcDbDs::TreatedAsObjectDataSchema
  2
AcDbDs::TreatedAsObjectData
280
     1
 91
        0
  0
XRECORD
  5
2C66
102
{ACAD_REACTORS
330
2C6A
102
}
330
2C6A
100
AcDbXrecord
280
     1
  1
AcDbDs::LegacySchema
  2
AcDbDs::Legacy
280
     1
 91
        0
  0
XRECORD
  5
2C67
102
{ACAD_REACTORS
330
2C6A
102
}
330
2C6A
100
AcDbXrecord
280
     1
  1
AcDbDs::IndexedPropertySchema
  2
AcDs:Indexable
280
     1
 91
        0
  0
XRECORD
  5
2C68
102
{ACAD_REACTORS
330
2C6A
102
}
330
2C6A
100
AcDbXrecord
280
     1
  1
AcDbDs::HandleAttributeSchema
  2
AcDbDs::HandleAttribute
280
     7
 91
        1
284
     1
  0
XRECORD
  5
2C9F
102
{ACAD_REACTORS
330
2C9E
102
}
330
2C9E
100
AcDbXrecord
280
     1
102
DISPLAYNAME
  1
Imperial24
102
FLAGS
 90
        0
  0
XRECORD
  5
2CA3
102
{ACAD_REACTORS
330
2CA2
102
}
330
2CA2
100
AcDbXrecord
280
     1
102
DISPLAYNAME
  1
Metric50
102
FLAGS
 90
        0
  0
XRECORD
  5
460
102
{ACAD_REACTORS
330
194
102
}
330
194
100
AcDbXrecord
280
     1
310
2800000000010000700000000100080000000000007000000100000001000000000100000000000000000000FFFFFF00000000FF000000FF000000FF000000FF000000FF000000FF000000FF000000FF000000FF330000FF660000FF990000FFCC0000FFFF0000FF003300FF333300FF663300FF993300FFCC3300FFFF3300
310
FF006600FF336600FF666600FF996600FFCC6600FFFF6600FF009900FF339900FF669900FF999900FFCC9900FFFF9900FF00CC00FF33CC00FF66CC00FF99CC00FFCCCC00FFFFCC00FF00FF00FF33FF00FF66FF00FF99FF00FFCCFF00FFFFFF00FF000033FF330033FF660033FF990033FFCC0033FFFF0033FF003333FF3333
310
33FF663333FF993333FFCC3333FFFF3333FF006633FF336633FF666633FF996633FFCC6633FFFF6633FF009933FF339933FF669933FF999933FFCC9933FFFF9933FF00CC33FF33CC33FF66CC33FF99CC33FFCCCC33FFFFCC33FF00FF33FF33FF33FF66FF33FF99FF33FFCCFF33FFFFFF33FF000066FF330066FF660066FF99
310
0066FFCC0066FFFF0066FF003366FF333366FF663366FF993366FFCC3366FFFF3366FF006666FF336666FF666666FF996666FFCC6666FFFF6666FF009966FF339966FF669966FF999966FFCC9966FFFF9966FF00CC66FF33CC66FF66CC66FF99CC66FFCCCC66FFFFCC66FF00FF66FF33FF66FF66FF66FF99FF66FFCCFF66FF
310
FFFF66FF000099FF330099FF660099FF990099FFCC0099FFFF0099FF003399FF333399FF663399FF993399FFCC3399FFFF3399FF006699FF336699FF666699FF996699FFCC6699FFFF6699FF009999FF339999FF669999FF999999FFCC9999FFFF9999FF00CC99FF33CC99FF66CC99FF99CC99FFCCCC99FFFFCC99FF00FF99
310
FF33FF99FF66FF99FF99FF99FFCCFF99FFFFFF99FF0000CCFF3300CCFF6600CCFF9900CCFFCC00CCFFFF00CCFF0033CCFF3333CCFF6633CCFF9933CCFFCC33CCFFFF33CCFF0066CCFF3366CCFF6666CCFF9966CCFFCC66CCFFFF66CCFF0099CCFF3399CCFF6699CCFF9999CCFFCC99CCFFFF99CCFF00CCCCFF33CCCCFF66CC
310
CCFF99CCCCFFCCCCCCFFFFCCCCFF00FFCCFF33FFCCFF66FFCCFF99FFCCFFCCFFCCFFFFFFCCFF0000FFFF3300FFFF6600FFFF9900FFFFCC00FFFFFF00FFFF0033FFFF3333FFFF6633FFFF9933FFFFCC33FFFFFF33FFFF0066FFFF3366FFFF6666FFFF9966FFFFCC66FFFFFF66FFFF0099FFFF3399FFFF6699FFFF9999FFFFCC
310
99FFFFFF99FFFF00CCFFFF33CCFFFF66CCFFFF99CCFFFFCCCCFFFFFFCCFFFF00FFFFFF33FFFFFF66FFFFFF99FFFFFFCCFFFFFFFFFFFFFF000000FF0D0D0DFF1A1A1AFF282828FF353535FF434343FF505050FF5D5D5DFF6B6B6BFF787878FF868686FF939393FFA1A1A1FFAEAEAEFFBBBBBBFFC9C9C9FFD6D6D6FFE4E4E4FF
310
F1F1F1FFFFFFFFFF000000FF000000FF000000FF000000FF000000FF000000FF000000FF000000FF000000FF000000FF00000000000000000000000000000000000000000000000000000000000000000000000000000000000000000000000000000000000000000000000000000000000000000000000000000000000000
310
00000000000000000000000000000000000000000000000000000000000000000000000000000000000000000000000000000000000000000000000000000000000000000000000000000000000000000000000000000000000000000000000000000000000000000000000000000000000000000000000000000000000000
310
00000000000000000000000000000000000000000000000000000000000000000000000000000000000000000000000000000000000000000000000000000000000000000000000000000000000000000000000000000000000000000000000000000000000000000000000000000000000000000000000000000000000000
310
00000000000000000000000000000000000000000000000000000000000000000000000000000000000000000000000000000000000000000000000000000000000000000000000000000000000000000000000000000000000000000000000000000000000000000000000000000000000000000000000000000000000000
310
00000000000000000000000000000000000000000000000000000000000000000000000000000000000000000000000000000000000000000000000000000000000000000000000000000000000000000000000000000000000000000000000000000000000000000000000000000000000000000000000000000000000000
310
00000000000000000000000000000000000000000000000000000000000000000000000000000000000000000000000000000000000000000000000000000000000000000000000000000000000000000000000000000000000000000000000000000000000000000000000000000000000000000000000000000000000000
310
00000000000000000000000000000000000000000000000000000000000000000000000000000000000000000000000000000000000000000000000000000000000000000000000000000000000000000000000000000000000000000000000000000000000000000000000000000000000000000000000000000000000000
310
00000000000000000000000000000000000000000000000000000000000000000000000000000000000000000000000000000000000000000000000000000000000000000000000000000000000000000000000000000000000000000000000000000000000000000000000000000000000000000000000000000000000000
310
00000000000000000000000000000000000000000000000000000000000000000000000000000000000000000000000000000000000000000000000000000000000000000000000000000000000000000000000000000000000000000000000000000000000000000000000000000000000000000000000000000000000000
310
00000000000000000000000000000000000000000000000000000000000000F5F500000000000000000000000000000000000000000000000000000000000000000000000000F5F500000000F5F500000000000000F5F500000000000000F5F500000000000000000000000000000000000000000000000000000000000000
310
00000000000000000000000000000000000000000000000000000000000000000000000000000000000000000000000000000000000000000000000000000000000000000000000000000000000000000000000000000000000000000000000000000000000000000000000000000000F5F5F5F5F5F5F5F5F5F5F5F5F5F5F5
310
F5F5F5F5F5F5F5F5F5F5F5F5F5F5F5F5F5F5F5F5F5F5F5F5F5F5F5F5F5F5F5F5F5F5F5F5F5F5F5F5F5F5F5F5F5F5F5F5F5F5F5F5F5F5F5F5F5F5F5F5F5F5F5F5F5F5F5F5F5F5F5F5F5F5F5F5F5F5F5F5F5F5F5F5F5F5F5F5F5F5F5F5F5F5F5F5F5F5F5F5F5F5F5F5F5F5F5F5F5F5F5F5F5F5F5F5F5F5F5F5F5F5F5F5F5F5F5
310
F5F5F5F5F5F5000000000000000000000000000000000000000000000000000000000000000000000000000000000000000000000000000000000000000000000000000000000000000000000000000000000000000000000000000000000000000000000000000000000000000000000000F5F500F5F5F5F5F5F5F5F5F5F5
310
F5F5F5F50000F5000000F5F5F5F5F5F5F5F5F5F5F5F5F5F5F5F5F5F5F5F5F5000000F5F5F500000000000000000000000000000000000000000000000000000000000000000000000000F5F500F500F5F5F5F5F5F5F5F5F500F5F5F5F5F5F5F5F5F5F5F5F5F5F5F5F5F5F5F5F5F5F5F5F5F5F5F5F5F5F5F5F5F5F5F5F5F5F5
310
F5F5F5F5F5F5F5F5000000000000000000000000000000000000000000000000000000000000000000000000000000000000000000000000000000000000000000000000000000000000000000000000000000000000000000000000000000000000000000000000000000000000000000000000F5F5000000000000000000
310
0000000000000000F5000000000000000000000000000000000000000000000000000000F5F5F50000000000000000000000000000F5F5F5F5F5F5F5F5F5F500000000000000000000000000F5F5000000F5F5F500000000000000F5F500000000000000F5F5F5000000000000000000000000000000000000000000000000
310
000000000000000000F5000000000000000000000000000000000000000000000000000000000000000000000000000000000000000000000000000000000000000000000000000000000000000000000000000000000000000000000000000000000000000000000000000000000000000000000000F5F5F5F5F5F5F5F5F5
310
F5F5F5F5F5F5F5F5F5F5F5F5F5F5F5F5F5F5F5F5F5F5F5F5F5F5F5F5F5F5F5F5F5F5F5F5F5F5F5F5F5F5F5F5F5F5F5F5F5F5F5F5F5F5F5F5F5F5F5F5F5F5F5F5F5F5F5F5F5F5F5F5F5F5F5F5F5F5F5F5F5F5F5F5F5F5F5F5F5F5F5F5F5F5F5F5F5F5F5F5F5F5F5F5F5F5F5F5F5F5F5F5F5F5F5F5F5F5F5F5F5F5F5F5F5F5F5
310
F5F5F5F5F5F5F5F5F5F5F5F5000000000000000000000000000000000000000000000000000000000000000000000000000000000000000000000000000000000000000000000000000000000000000000000000000000000000000000000000000000000000000000000000000000000000000000000000F5000000000000
310
00000000000000000000000000000000000000000000000000000000000000000000000000000000000000000000000000000000000000000000000000000000000000000000000000000000000000000000000000000000000000000000000000000000000000000000000000000000000000000000000000000000000000
310
00000000000000000000000000F5000000000000000000000000000000000000000000000000000000000000000000000000000000000000000000000000000000000000000000000000000000000000000000000000000000000000000000000000000000000000000000000000000000000000000000000000F500000000
310
00000000000000000000000000000000000000000000000000000000000000000000000000000000000000000000000000000000000000000000000000000000000000000000000000000000000000000000000000000000000000000000000000000000000000000000000000000000000000000000000000000000000000
310
000000000000000000000000000000F5000000000000000000000000000000000000000000000000000000000000000000000000000000000000000000000000000000000000000000000000000000000000000000000000000000000000000000000000000000000000000000000000000000000000000000000000F50000
310
00000000000000000000000000000000000000000000000000000000000000000000000000000000000000000000000000000000000000000000000000000000000000000000000000000000000000000000000000000000000000000000000000000000000000000000000000000000000000000000000000000000000000
310
0000000000000000000000000000000000F5000000000000000000000000000000000000000000000000000000000000000000000000000000000000000000000000000000000000000000000000000000000000000000000000000000000000000000000000000000000000000000000000000000000000000000000000F5
310
00000000000000000000000000000000000000000000000000000000000000000000000000000000000000000000000000000000000000000000000000000000000000000000000000000000000000000000000000000000000000000000000000000000000000000000000000000000000000000000000000000000000000
310
00000000000000000000000000000000000000F50000000000000000000000000000000000000000000000000000000000000000000000000000000000000000000000000000000000000000000000000000000000000000000000000000000000000000000000000000000000000000000000000000000000000000000000
310
00F500000000000000000000000000000000000000000000000000000000000000000000000000000000000000000000000000000000000000000000000000000000000000000000000000000000000000000000F5F5F5F5F5F5F5F5F5F5F5F5F5F5F5F5F5F5F5F5F5F5F5F5F5F5F5F5F5F5F5000000000000000000000000
310
000000000000000000000000000000000000000000F5000000000000000000000000000000000000000000000000000000000000000000000000000000000000000000000000000000000000000000000000000000000000000000000000000000000000000000000000000000000000000000000000000000000000000000
310
000000F5000000000000000000000000000000000000000000000000000000000000000000000000000000000000000000000000000000000000000000000000000000000000000000000000000000000000000000000000000000000000000000000000000000000000000000000000000000000000000000000000000000
310
0000000000000000000000000000000000000000000000F500000000000000000000000000000000000000000000000000000000000000000000000000000000000000000000000000000000000000000000000000000000000000000000000000000000000000000000000000000000000000000000000000000000000000
310
0000000000F500000000000000000000000000000000000000000000000000000000000000000000000000000000000000000000000000000000000000000000000000000000000000000000000000000000000000000000000000000000000000000000000000000000000000000000000000000000000000000000000000
310
00000000000000000000000000000000000000000000000000F50000000000000000000000000000000000000000000000000000000000000000000000000000000000000000000000000000000000000000000000000000000000000000000000000000000000000000000000000000000000000000000000000000000000
310
00000000000000F50000000000000000000000000000000000000000000000000000000000000000000000000000000000000000000000000000000000000000000000000000000000000000000000000000000000000000000000000000000000000000000000000000000000000000000000000000000000000000000000
310
000000000000000000000000000000000000000000000000000000F5000000000000000000000000000000000000000000000000000000000000000000000000000000000000000000000000000000000000000000000000000000000000000000000000000000000000000000000000000000000000000000000000000000
310
000000000000000000F5000000000000000000000000000000000000000000000000000000000000000000000000000000000000000000000000000000000000000000000000000000000000000000000000000000000000000000000000000000000000000000000000000000000000000000000000000000000000000000
310
0000000000000000000000000000000000000000000000000000000000F500000000000000000000000000000000000000000000000000000000000000000000000000000000000000000000000000000000000000000000000000000000000000000000000000000000000000000000000000000000000000000000000000
310
0000000000000000000000F500000000000000000000000000000000000000000000000000000000000000000000000000000000000000000000000000000000000000000000000000000000000000000000000000000000000000000000000000000000000000000000000000000000000000000000000000000000000000
310
00000000000000000000000000000000000000000000000000000000000000F50000000000000000000000000000000000000000000000000000000000000000000000000000000000000000000000000000000000000000000000000000000000000000000000000000000000000000000000000000000000000000000000
310
00000000000000000000000000F50000000000000000000000000000000000000000000000000000000000000000000000000000000000000000000000000000000000000000000000000000000000000000000000000000000000000000000000000000000000000000000000000000000000000000000000000000000000
310
000000000000000000000000000000000000000000000000000000000000000000F5000000000000000000000000000000000000000000000000000000000000000000000000000000000000000000000000000000000000000000000000000000000000000000000000000000000000000000000000000000000000000000
310
000000000000000000000000000000F5000000000000000000000000000000000000000000000000000000000000000000000000000000000000000000000000000000000000000000000000000000000000000000000000000000000000000000000000000000000000000000000000000000000000000000000000000000
310
0000000000000000000000000000000000000000000000000000000000000000000000F500000000000000000000000000000000000000000000000000000000000000000000000000000000000000000000000000000000000000000000000000000000000000000000000000000000000000000000000000000000000000
310
0000000000000000000000000000000000F500000000000000000000000000000000000000000000000000000000000000000000000000000000000000000000000000000000000000000000000000000000000000000000000000000000000000000000000000000000000000000000000000000000000000000000000000
310
00000000000000000000000000000000000000000000000000000000000000000000000000F50000000000000000000000000000000000000000000000000000000000000000000000000000000000000000000000000000000000000000000000000000000000000000000000000000000000000000000000000000000000
310
00000000000000000000000000000000000000F50000000000000000000000000000000000000000000000000000000000000000000000000000000000000000000000000000000000000000000000000000000000000000000000000000000000000000000000000000000000000000000000000000000000000000000000
310
000000000000000000000000000000000000000000000000000000000000000000000000000000F5000000000000000000000000000000000000000000000000000000000000000000000000000000000000000000000000000000000000000000000000000000000000000000000000000000000000000000000000000000
310
000000000000000000000000000000000000000000F5000000000000000000000000000000000000000000000000000000000000000000000000000000000000000000000000000000000000000000000000000000000000000000000000000000000000000000000000000000000000000000000000000000000000000000
310
0000000000000000000000000000000000000000000000000000000000000000000000000000000000F500000000000000000000000000000000000000000000000000000000000000000000000000000000000000000000000000000000000000000000000000000000000000000000000000000000000000000000000000
310
0000000000000000000000000000000000000000000000F5000000000000000000000000000000000000000000000000000000000000000000000000000000000000000000000000000000000000000000000000000000000000000000000000BE000000000000000000000000000000000000000000000000000000000000
310
00000000000000000000000000000000000000000000000000000000000000000000000000000000000000F50000000000000000000000000000000000000000000000000000000000000000000000000000000000000000000000000000000000000000000000000000000000000000000000000000000000000000000000
310
00000000000000000000000000000000000000000000000000F50000000000000000000000000000000000000000000000000000000000000000000000000000000000000000000000000000000000DC000000000000000000000000000000000000F50000002D002D00000000000000000000000000000000000000000000
310
000000000000000000000000000000000000000000000000000000000000000000000000000000000000000000F5000000000000000000000000000000000000000000000000000000000000000000000000000000000000000000000000000000000000000000000000000000000000000000000000000000000000000000
310
000000000000000000000000000000000000000000000000000000F50000000000000000000000000000000000000000000000000000000000000000000000000000000000000000000000000000000000DC000000000000000000000000000000000000F50000002D002D0000000000000000000000000000000000000000
310
0000000000000000000000000000000000000000000000000000000000000000000000000000000000000000000000F500000000000000000000000000000000000000000000000000000000000000000000000000000000000000000000000000000000000000000000000000000000000000000000000000000000000000
310
0000000000000000000000000000000000000000000000000000000000F50000000000000000000000000000000000000000000000000000000000000000000000000000000000000000000000000000000000DC000000000000000000000000000000000000F50000002D002D000000000000000000000000000000000000
310
00000000000000000000000000000000000000000000000000000000000000000000000000000000000000000000000000F50000000000000000000000000000000000000000000000000000000000000000000000000000000000000000000000000000000000000000000000000000000000000000000000000000000000
310
00000000000000000000000000000000000000000000000000000000000000F50000000000000000000000000000000000000000000000000000000000000000000000000000000000000000000000000000000000DC000000000000000000000000000000000000F50000002D002D00000000000000000000000000000000
310
000000000000000000000000000000000000000000000000000000000000000000000000000000000000000000000000000000F5000000000000000000000000000000000000000000000000000000000000000000000000000000000000000000000000000000000000000000000000000000000000000000000000000000
310
000000000000000000000000000000000000000000000000000000000000000000F50000000000000000000000000000000000000000000000000000000000000000000000000000000000000000000000000000000000DC000000000000000000000000000000000000F50000002D002D0000000000000000000000000000
310
0000000000000000000000000000000000000000000000000000000000000000000000000000000000000000000000000000000000F500000000000000000000000000000000000000000000000000000000000000000000000000000000000000000000000000000000000000000000000000000000000000000000000000
310
0000000000000000000000000000000000000000000000000000000000000000000000F50000000000000000000000000000000000000000000000000000000000000000000000000000000000000000000000000000000000DC000000000000000000000000000000000000F50000002D002D000000000000000000000000
310
00000000000000000000000000000000000000000000000000000000000000000000000000000000000000000000000000000000000000F50000000000000000000000000000000000000000000000000000000000000000000000000000000000000000000000000000000000000000000000000000000000000000000000
310
00000000000000000000000000000000000000000000000000000000000000000000000000F50000000000000000000000000000000000000000000000000000000000000000000000000000000000000000000000000000000000DC000000000000000000000000000000000000F50000002D002D00000000000000000000
310
000000000000000000000000000000000000000000000000000000000000000000000000000000000000000000000000000000000000000000F5000000000000000000000000000000000000000000000000000000000000000000000000000000000000000000000000000000000000000000000000000000000000000000
310
000000000000000000000000000000000000000000000000000000000000000000000000000000F50000000000000000000000000000000000000000000000000000000000000000000000000000000000000000000000000000000000DC000000000000000000000000000000000000F50000002D002D0000000000000000
310
0000000000000000000000000000000000000000000000000000000000000000000000000000000000000000000000000000000000000000000000F500000000000000000000000000000000000000000000000000000000000000000000000000000000000000000000000000000000000000000000000000000000000000
310
0000000000000000000000000000000000000000000000000000000000000000000000000000000000F50000000000000000000000000000000000000000000000000000000000000000000000000000000000000000000000000000000000DC000000000000000000000000000000000000F50000002D002D000000000000
310
00000000000000000000000000000000000000000000000000000000000000000000000000000000000000000000000000000000000000000000000000F50000000000000000000000000000000000000000000000000000000000000000000000000000000000000000000000000000000000000000000000000000000000
310
00000000000000000000000000000000000000000000000000000000000000000000000000000000000000F50000000000000000000000000000000000000000000000000000000000000000000000000000000000000000000000000000000000DC000000000000000000000000000000000000F50000002D002D00000000
310
000000000000000000000000000000000000000000000000000000000000000000000000000000000000000000000000000000000000000000000000000000F5000000000000000000000000000000000000000000000000000000000000000000000000000000000000000000000000000000000000000000000000000000
310
000000000000000000000000000000000000000000000000000000000000000000000000000000000000000000F50000000000000000000000000000000000000000000000000000000000000000000000000000000000000000000000000000000000DC000000000000000000000000000000000000F50000002D002D0000
310
0000000000000000000000000000000000000000000000000000000000000000000000000000000000000000000000000000000000000000000000000000000000F500000000000000000000000000000000000000000000000000000000000000000000000000000000000000000000000000000000000000000000000000
310
0000000000000000000000000000000000000000000000000000000000000000000000000000000000000000000000F50000000000000000000000000000000000000000000000000000000000000000000000000000000000000000000000000000000000DC000000000000000000000000000000000000F50000002D002D
310
2D000000000000000000000000000000000000000000000000000000000000000000000000000000000000000000000000000000000000000000000000000000000000F50000000000000000000000000000000000000000000000000000000000000000000000000000000000000000000000000000000000000000000000
310
00000000000000000000000000000000000000000000000000000000000000000000000000000000000000000000000000F50000000000000000000000000000000000000000000000000000000000000000000000000000000000000000000000000000000000DC000000000000000000000000000000000000F50000002D
310
2D2D2D2D0000000000000000000000000000000000000000000000000000000000000000000000000000000000000000000000000000000000000000000000000000000000F5000000000000000000000000000000000000000000000000000000000000000000000000000000000000000000000000000000000000000000
310
000000000000000000000000000000000000000000000000000000000000000000000000000000000000000000000000000000F50000000000000000000000000000000000000000000000000000000000000000000000000000000000000000000000000000000000DC000000000000000000000000000000000000F50000
310
2D2D2D2D2D000000000000000000000000000000000000000000000000000000000000000000000000000000000000000000000000000000000000000000000000000000000000F500000000000000000000000000000000000000000000000000000000000000000000000000000000000000000000000000000000000000
310
0000000000000000000000000000000000000000000000000000000000000000000000000000000000000000000000000000000000F50000000000000000000000000000000000000000000000000000000000000000000000000000000000000000000000000000000000DC000000000000000000000000000000000000F5
310
0000002D2D2D2D000000000000000000000000000000000000000000000000000000000000000000000000000000000000000000000000000000000000000000000000000000000000F50000000000000000000000000000000000000000000000000000000000000000000000000000000000000000000000000000000000
310
00000000000000000000000000000000000000000000000000000000000000000000000000000000000000000000000000000000000000F50000000000000000000000000000000000000000000000000000000000000000000000000000000000000000000000000000000000DC0000000000000000000000000000000000
310
00F50000002D2D2D2D000000000000000000000000000000000000000000000000000000000000000000000000000000000000000000000000000000000000000000000000000000000000F5000000000000000000000000000000000000000000000000000000000000000000000000000000000000000000000000000000
310
000000000000000000000000000000000000000000000000000000000000000000000000000000000000000000000000000000000000000000F50000000000000000000000000000000000000000000000000000000000000000000000000000000000000000000000000000000000DC000000000000000000000000000000
310
000000F5C3C32D2D2D2D2D000000000000000000000000000000000000000000000000000000000000000000000000000000000000000000000000000000000000000000000000000000000000F500000000000000000000000000000000000000000000000000000000000000000000000000000000000000000000000000
310
0000000000000000000000000000000000000000000000000000000000000000000000000000000000000000000000000000000000000000000000F50000000000000000000000000000000000000000000000000000000000000000000000000000000000000000000000000000000000DC00000000000000000000000000
310
00000000C3F5C3C32D2D2D002D000000000000000000000000000000000000000000000000000000000000000000000000000000000000000000000000000000000000000000000000000000000000F50000000000000000000000000000000000000000000000000000000000000000000000000000000000000000000000
310
00000000000000000000000000000000000000000000000000000000000000000000000000000000000000000000000000000000000000000000000000F50000000000000000000000000000000000000000000000000000000000000000000000000000000000000000000000000000000000DC0000000000000000000000
310
00000000000000F50000002D2D002D000000F5F5F5F5F5F5000000000000000000000000000000000000000000000000000000000000000000000000000000000000000000000000000000000000000000F5000000000000000000000000000000000000000000000000000000000000000000000000000000000000000000
310
000000000000000000000000000000000000000000000000000000000000000000000000000000000000000000000000000000000000000000000000000000F50000000000000000000000000000000000000000000000000000000000000000000000000000000000000000000000000000000000DC000000000000000000
310
000000000000000000F50000002D2D002D00F5F5F50000000000000000000000000000000000000000000000000000000000000000000000000000000000000000000000000000000000000000000000000000F500000000000000000000000000000000000000000000000000000000000000000000000000000000000000
310
0000000000000000000000000000000000000000000000000000000000000000000000000000000000000000000000000000000000000000000000000000000000F50000000000000000000000000000000000000000000000000000000000000000000000000000000000000000000000000000000000DC00000000000000
310
0000000000000000000000F50000002D2D002DF50000000000000000000000000000000000000000000000000000000000000000000000000000000000000000000000000000000000000000000000000000000000F50000000000000000000000000000000000000000000000000000000000000000000000000000000000
310
00000000000000000000000000000000000000000000000000000000000000000000000000000000000000000000000000000000000000000000000000000000000000F50000000000000000000000000000000000000000000000000000000000000000000000000000000000000000000000000000000000DC0000000000
310
00000000000000000000000000F500002D2D2D002DF50000000000000000000000000000000000000000000000000000000000000000000000000000000000000000000000000000000000000000000000000000000000F5000000000000000000000000000000000000000000000000000000000000000000000000000000
310
000000000000000000000000000000000000000000000000000000000000000000000000000000000000000000000000000000000000000000000000000000000000000000F50000000000000000000000000000000000000000000000000000000000000000000000000000000000000000000000000000000000DC000000
310
000000000000000000000000000000F5F5002D2D2D002D000000000000000000000000000000000000000000000000000000000000000000000000000000000000000000000000000000000000000000000000000000000000F500000000000000000000000000000000000000000000000000000000000000000000000000
310
0000000000000000000000000000000000000000000000000000000000000000000000000000000000000000000000000000000000000000000000000000000000000000000000F50000000000000000000000000000000000000000000000000000000000000000000000000000000000000000000000000000000000DC00
310
0000000000000000000000000000000000F5F500002D00002D000000000000000000000000000000000000000000000000000000000000000000000000000000000000000000000000000000000000000000000000000000000000F50000000000000000000000000000000000000000000000000000000000000000000000
310
00000000000000000000000000000000000000000000000000000000000000000000000000000000000000000000000000000000000000000000000000000000000000000000000000F50000000000000000000000000000000000000000000000000000000000000000000000000000000000000000000000000000000000
310
DC000000000000000000000000000000000000F50000002D002D00000000000000000000000000000000000000000000000000000000000000000000000000000000000000000000000000000000000000000000000000000000000000F5000000000000000000000000000000000000000000000000000000000000000000
310
000000000000000000000000000000000000000000000000000000000000000000000000000000000000000000000000000000000000000000000000000000000000000000000000000000F5000000000000000000000000000000000000000000000000000000000000000000000000000000000000000000000000000000
310
0000DC000000000000000000000000000000000000F50000002D002D00000000000000000000000000000000000000000000000000000000000000000000000000000000000000000000000000000000000000000000000000000000000000F500000000000000000000000000000000000000000000000000000000000000
310
0000000000000000000000000000000000000000000000000000000000000000000000000000000000000000000000000000000000000000000000000000000000000000000000000000000000F500000000000000000000000000000000000000000000000000000000000000000000000000000000000000000000000000
310
00000000DC0000000000000000000000000000000000F5F50000002D002D00000000000000000000000000000000000000000000000000000000000000000000000000000000000000000000000000000000000000000000000000000000000000F50000000000000000000000000000000000000000000000000000000000
310
00000000000000000000000000000000000000000000000000000000000000000000000000000000000000000000000000000000000000000000000000000000000000000000000000000000000000F50000000000000000000000000000000000000000000000000000000000000000000000000000000000000000000000
310
000000000000DC0000000000000000000000F5F5F5000000F5F50000002D002D0000F5F5F5F5F5F5F5F5F50000000000000000000000000000000000000000000000000000000000000000000000000000000000000000000000000000000000000000F5000000000000000000000000000000000000000000000000000000
310
000000000000000000000000000000000000000000000000000000000000000000000000000000000000000000000000000000000000000000000000000000000000000000000000000000000000000000F5000000000000000000000000000000000000000000000000000000000000000000000000000000000000000000
310
0000000000000000DC0000000000000000000000000000F5F5F500F50000002D002D00F50000F5F5F5F5F5F5F50000000000000000000000000000000000000000000000000000000000000000000000000000000000000000000000000000000000000000F500000000000000000000000000000000000000000000000000
310
0000000000000000000000000000000000000000000000000000000000000000000000000000000000000000000000000000000000000000000000000000000000000000000000000000000000000000000000F500000000000000000000000000000000000000000000000000000000000000000000000000000000000000
310
00000000000000000000DC000000000000000000000000000000000000F50000A62DA62D00F5F5F5F5F5F5F5F5F5F50000000000000000000000000000000000000000000000000000000000000000000000000000000000000000000000000000000000000000F50000000000000000000000000000000000000000000000
310
00000000000000000000000000000000000000000000000000000000000000000000000000000000000000000000000000000000000000000000000000000000000000000000000000000000000000000000000000F50000000000000000000000000000000000000000000000000000000000000000000000000000000000
310
000000000000000000000000DC000000000000000000000000000000000000F50000A62DA62DF500F50000F5F5F5F5F5F50000000000000000000000000000000000000000000000000000000000000000000000000000000000000000000000000000000000000000F5000000000000000000000000000000000000000000
310
000000000000000000000000000000000000000000000000000000000000000000000000000000000000000000000000000000000000000000000000000000000000000000000000000000000000000000000000000000F5000000000000000000000000000000000000000000000000000000000000000000000000000000
310
0000000000000000000000000000DC000000000000000000000000000000000000F50000A62DA62D28F500F5F5F500000000000000000000000000000000000000000000000000000000000000000000000000000000000000000000000000000000000000000000000000F500000000000000000000000000000000000000
310
0000000000000000000000000000000000000000000000000000000000000000000000000000000000000000000000000000000000000000000000000000000000000000000000000000000000000000000000000000000000F500000000000000000000000000000000000000000000000000000000000000000000000000
310
00000000000000000000000000000000DC0000000000000000000000000000000000C3C3C3C3C3C300C3F0F5F500000000000000000000000000000000000000000000000000000000000000000000000000000000000000000000000000000000000000000000000000000000F50000000000000000000000000000000000
310
00000000000000000000000000000000000000000000000000000000000000000000000000000000000000000000000000000000000000000000000000000000000000000000000000000000000000000000000000000000000000F50000000000000000000000000000000000000000000000000000000000000000000000
310
000000000000000000000000000000000000DC00000000000000000000000000000000C3C3C3C3C3C3C3C3C3F0F0F5F5F5F5F5F5F5F5F5F5F5F50000000000000000000000000000000000000000000000000000000000000000000000000000000000000000000000000000000000F5000000000000000000000000000000
310
000000000000000000000000000000000000000000000000000000000000000000000000000000000000000000000000000000000000000000000000000000000000000000000000000000000000000000000000000000000000000000F5000000000000000000000000000000000000000000000000000000000000000000
310
0000000000000000000000000000000000000000DC000000000000000000000000000000000000F50000002D2DC3F0F0F50000F5F5F5F5F5F5F5F5F50000000000000000000000000000000000000000000000000000000000000000000000000000000000000000000000000000000000F500000000000000000000000000
310
0000000000000000000000000000000000000000000000000000000000000000000000000000000000000000000000000000000000000000000000000000000000000000000000000000000000000000000000000000000000000000000000F500000000000000000000000000000000000000000000000000000000000000
310
00000000000000000000000000000000000000000000DC000000000000000000000000000000000000F50000A6A6A6F0F0F000F5F500000000000000F5F50000000000000000000000000000000000000000000000000000000000000000000000000000000000000000000000000000000000F50000000000000000000000
310
00000000000000000000000000000000000000000000000000000000000000000000000000000000000000000000000000000000000000000000000000000000000000000000000000000000000000000000000000000000000000000000000000F50000000000000000000000000000000000000000000000000000000000
310
000000000000000000000000000000000000000000000000DC000000000000000000000000000000000000F5000000A62828A6F0F000000000000000000000000000000000000000000000000000000000000000000000000000000000000000000000000000000000000000000000000000000000F5000000000000000000
310
000000000000000000000000000000000000000000000000000000000000000000000000000000000000000000000000000000000000000000000000000000000000000000000000000000000000000000000000000000000000000000000000000000F5000000000000000000000000000000000000000000000000000000
310
0000000000000000000000000000000000000000000000000000DC000000000000000000000000000000000000F50000A6A6A6A6F0F0F0F0A6A60000F5F5F5F5F5F5F5F5F50000000000000000000000000000000000000000000000000000000000000000000000000000000000000000000000000000F500000000000000
310
0000000000000000000000000000000000000000000000000000000000000000000000000000000000000000000000000000000000000000000000000000000000000000000000000000000000000000000000000000000000000000000000000000000000F500000000000000000000000000000000000000000000000000
310
00000000000000000000000000000000000000000000000000000000DC000000000000000000000000000000000000F50000A6A6A6A6F028000000A6F5F5F500000000000000000000000000000000000000000000000000000000000000000000000000000000000000000000000000000000000000000000F50000000000
310
00000000000000000000000000000000000000000000000000000000000000000000000000000000000000000000000000000000000000000000000000000000000000000000000000000000000000000000000000000000000000000000000000000000000000F50000000000000000000000000000000000000000000000
310
000000000000000000000000000000000000000000000000000000000000DC000000000000000000000000000000000000F5000000F500000000000000F500000000000000000000000000000000000000000000000000000000000000000000000000000000000000000000000000000000000000000000000000F5000000
310
000000000000000000000000000000000000000000000000000000000000000000000000000000000000000000000000000000000000000000000000000000000000000000000000000000000000000000000000000000000000000000000000000000000000000000F5000000000000000000000000000000000000000000
310
0000000000000000000000000000000000000000000000000000000000000000DC000000000000000000000000000000000000F5000000F50000000000A6A6A600000000000000000000000000000000000000000000000000000000000000000000000000000000000000000000000000000000000000000000000000F500
310
0000000000000000000000000000000000000000000000000000000000000000000000000000000000000000000000000000000000000000000000000000000000000000000000000000000000000000000000000000000000000000000000000000000000000000000000F500000000000000000000000000000000000000
310
00000000000000000000000000000000000000000000000000000000000000000000DC000000000000000000000000000000000000DCDCDCDCDCDCDCDCDCDCDCDCDCDCF5DCDCDC0000000000000000000000000000000000000000000000000000000000000000000000000000000000000000000000000000000000000000
310
F5000000000000000000000000000000000000000000000000000000000000000000000000000000000000000000000000000000000000000000000000000000000000000000000000000000000000000000000000000000000000000000000000000000000000000000000000F50000000000000000000000000000000000
310
000000000000000000000000000000000000000000000000000000000000000000000000DC000000000000F5F5F5F5F5F5F5F5F50000F5DCDCDCDCDCDCDCDCDCDCDCDCDCDCF5DCDCDC000000000000000000000000000000000000000000000000000000000000000000000000000000000000000000000000000000000000
310
0000F5000000000000000000000000000000000000000000000000000000000000000000000000000000000000000000000000000000000000000000000000000000000000000000000000000000000000000000000000000000000000000000000000000000000000000000000000F5000000000000000000000000000000
310
0000000000000000000000000000000000000000000000000000000000000000000000000000DC000000000000000000000000000000F5F5F5DCDC00000000DC0000000000000000F5000000000000000000000000000000000000000000000000000000000000000000000000000000000000000000000000000000000000
310
00000000F5000000000000000000000000000000000000000000000000000000000000000000000000000000000000000000000000000000000000000000000000000000000000000000000000000000000000000000000000000000000000000000000000000000000000000000000000F500000000000000000000000000
310
00000000000000000000000000000000000000000000000000000000000000000000000000000000DC000000000000000000000000000000000000DC00DCDC0000DC0000000000000000F500000000000000000000000000000000000000000000000000000000000000000000000000000000000000000000000000000000
310
000000000000F5000000000000000000000000000000000000000000000000000000000000000000000000000000000000000000000000000000000000000000000000000000000000000000000000000000000000000000000000000000000000000000000000000000000000000000000000F50000000000000000000000
310
000000000000000000000000000000000000000000000000000000000000000000000000000000000000DC000000000000000000000000000000000000DC000000DC00DC000000000000000000F50000F5F5000000000000000000000000000000000000000000000000000000000000000000000000000000000000000000
310
0000000000000000F5000000000000000000000000000000000000000000000000000000000000000000000000000000000000000000000000000000000000000000000000000000000000000000000000000000000000000000000000000000000000000000000000000000000000000000000000F5000000000000000000
310
0000000000000000000000000000000000000000000000000000000000000000000000000000000000000000DC000000000000000000000000000000000000DC00000000DCDC000000000000000000F5F5F5F5F500000000000000000000000000000000000000000000000000000000000000000000000000000000000000
310
00000000000000000000F5000000000000000000000000000000000000000000000000000000000000000000000000000000000000000000000000000000000000000000000000000000000000000000000000000000000000000000000000000000000000000000000000000000000000000000000000F500000000000000
310
00000000000000000000000000000000000000000000000000000000000000000000000000000000000000000000DC000000000000000000000000000000000000DCDCDCDCDCDCDCDCDCDCDCDCDCDCDCDCDCDC0000000000000000000000000000000000000000000000000000000000000000000000000000000000000000
310
000000000000000000000000F5000000000000000000000000000000000000000000000000000000000000000000000000000000000000000000000000000000000000000000000000000000000000000000000000000000000000000000000000000000000000000000000000000000000000000000000000F50000000000
310
000000000000000000000000000000000000000000000000000000000000000000000000000000000000000000000000DC000000000000000000000000000000000000DC0000000000000000000000000000000000000000000000000000000000000000000000000000000000000000000000000000000000000000000000
310
0000000000000000000000000000F5000000000000000000000000000000000000000000000000000000000000000000000000000000000000000000000000000000000000000000000000000000000000000000000000000000000000000000000000000000000000000000000000000000000000000000000000F5000000
310
0000000000000000000000000000000000000000000000000000000000000000000000000000000000000000000000000000DC000000000000000000000000000000000000DC000000000000000000000000000000000000000000000000000000000000000000000000000000000000000000000000000000000000000000
310
00000000000000000000000000000000F5000000000000000000000000000000000000000000000000000000000000000000000000000000000000000000000000000000000000000000000000000000000000000000000000000000000000000000000000000000000000000000000000000000000000000000000000F500
310
00000000000000000000000000000000000000000000000000000000000000000000000000000000000000000000000000000000DC000000000000000000000000000000000000DC00000000000000000000000000000000000000000000000000000000000000000000000000000000000000000000000000000000000000
310
000000000000000000000000000000000000F5000000000000000000000000000000000000000000000000000000000000000000000000000000000000000000000000000000000000000000000000000000000000000000000000000000000000000000000000000000000000000000000000000000000000000000000000
310
F50000000000000000000000000000000000000000000000000000000000000000000000000000000000000000000000000000000000DC000000000000000000000000000000000000DC0000000000000000000000000000000000000000000000000000000000000000000000000000000000000000000000000000000000
310
0000000000000000000000000000000000000000F500000000000000000000000000000000000000000000000000000000000000000000000000000000000000000000000000000000000000000000000000000000000000000000000000000000000000000000000000000000000000000000000000000000000000000000
310
0000F50000000000000000000000000000000000000000000000000000000000000000000000000000000000000000000000000000000000DC000000000000000000000000000000000000DC000000000000000000000000000000000000000000000000000000000000000000000000000000000000000000000000000000
310
00000000000000000000000000000000000000000000F50000000000000000000000000000000000000000000000000000000000000000000000000000000000000000000000000000000000000000000000000000000000000000000000000000000000000000000000000000000000000000000000000000000000000000
310
00000000F50000000000000000000000000000000000000000000000000000000000000000000000000000000000000000000000000000000000DC000000000000000000000000000000000000DC00000000000000000000000000000000000000000000000000000000000000000000000000000000000000000000000000
310
000000000000000000000000000000000000000000000000F5000000000000000000000000000000000000000000000000000000000000000000000000000000000000000000000000000000000000000000000000000000000000000000000000000000000000000000000000000000000000000000000000000000000000
310
000000000000F50000000000000000000000000000000000000000000000000000000000000000000000000000000000000000000000000000000000DC000000000000000000000000000000000000DC0000000000000000000000000000000000000000000000000000000000000000000000000000000000000000000000
310
0000000000000000000000000000000000000000000000000000F500000000000000000000000000000000000000000000000000000000000000000000000000000000000000000000000000000000000000000000000000000000000000000000000000000000000000000000000000000000000000000000000000000000
310
0000000000000000F50000000000000000000000000000000000000000000000000000000000000000000000000000000000000000000000000000000000DC000000000000000000000000000000000000DC000000000000000000000000000000000000000000000000000000000000000000000000000000000000000000
310
00000000000000000000000000000000000000000000000000000000F50000000000000000000000000000000000000000000000000000000000000000000000000000000000000000000000000000000000000000000000000000000000000000000000000000000000000000000000000000000000000000000000000000
310
00000000000000000000F50000000000000000000000000000000000000000000000000000000000000000000000000000000000000000000000000000000000DC000000000000000000000000000000000000DC00000000000000000000000000000000000000000000000000000000000000000000000000000000000000
310
000000000000000000000000000000000000000000000000000000000000F5000000000000000000000000000000000000000000000000000000000000000000000000000000000000000000000000000000000000000000000000000000000000000000000000000000000000000000000000000000000000000000000000
310
000000000000000000000000F50000000000000000000000000000000000000000000000000000000000000000000000000000000000000000000000000000000000DC000000000000000000000000000000000000DC0000000000000000000000000000000000000000000000000000000000000000000000000000000000
310
0000000000000000000000000000000000000000000000000000000000000000F500000000000000000000000000000000000000000000000000000000000000000000000000000000000000000000000000000000000000000000000000000000000000000000000000000000000000000000000000000000000000000000
310
0000000000000000000000000000F50000000000000000000000000000000000000000000000000000000000000000000000000000000000000000000000000000000000DC000000000000000000000000000000000000DC000000000000000000000000000000000000000000000000000000000000000000000000000000
310
00000000000000000000000000000000000000000000000000000000000000000000F50000000000000000000000000000000000000000000000000000000000000000000000000000000000000000000000000000000000000000000000000000000000000000000000000000000000000000000000000000000000000000
310
00000000000000000000000000000000F50000000000000000000000000000000000000000000000000000000000000000000000000000000000000000000000000000000000DC000000000000000000000000000000000000DC00000000000000000000000000000000000000000000000000000000000000000000000000
310
000000000000000000000000000000000000000000000000000000000000000000000000F5000000000000000000000000000000000000000000000000000000000000000000000000000000000000000000000000000000000000000000000000000000000000000000000000000000000000000000000000000000000000
310
000000000000000000000000000000000000F50000000000000000000000000000000000000000000000000000000000000000000000000000000000000000000000000000000000DC000000000000000000000000000000000000DC0000000000000000000000000000000000000000000000000000000000000000000000
310
0000000000000000000000000000000000000000000000000000000000000000000000000000F500000000000000000000000000000000000000000000000000000000000000000000000000000000000000000000000000000000000000000000000000000000000000000000000000000000000000000000000000000000
310
0000000000000000000000000000000000000000F50000000000000000000000000000000000000000000000000000000000000000000000000000000000000000000000000000000000DC000000000000000000000000000000000000DC000000000000000000000000000000000000000000000000000000000000000000
310
00000000000000000000000000000000000000000000000000000000000000000000000000000000F50000000000000000000000000000000000000000000000000000000000000000000000000000000000000000000000000000000000000000000000000000000000000000000000000000000000000000000000000000
310
00000000000000000000000000000000000000000000F50000000000000000000000000000000000000000000000000000000000000000000000000000000000000000000000000000000000DC000000000000000000000000000000000000DC00000000000000000000000000000000000000000000000000000000000000
310
000000000000000000000000000000000000000000000000000000000000000000000000000000000000F5000000000000000000000000000000000000000000000000000000000000000000000000000000000000000000000000000000000000000000000000000000000000000000000000000000000000000000000000
310
000000000000000000000000000000000000000000000000F50000000000000000000000000000000000000000000000000000000000000000000000000000000000000000000000000000000000DC000000000000000000000000000000000000DC0000000000000000000000000000000000000000000000000000000000
310
0000000000000000000000000000000000000000000000000000000000000000000000000000000000000000F500000000000000000000000000000000000000000000000000000000000000000000000000000000000000000000000000000000000000000000000000000000000000000000000000000000000000000000
310
0000000000000000000000000000000000000000000000000000F50000000000000000000000000000000000000000000000000000000000000000000000000000000000000000000000000000000000DC000000000000000000000000000000000000DC000000000000000000000000000000000000000000000000000000
310
00000000000000000000000000000000000000000000000000000000000000000000000000000000000000000000F50000000000000000000000000000000000000000000000000000000000000000000000000000000000000000000000000000000000000000000000000000000000000000000000000000000000000000
310
00000000000000000000000000000000000000000000000000000000F50000000000000000000000000000000000000000000000000000000000000000000000000000000000000000000000000000000000DC000000000000000000000000000000000000DC00000000000000000000000000000000000000000000000000
310
000000000000000000000000000000000000000000000000000000000000000000000000000000000000000000000000F5000000000000000000000000000000000000000000000000000000000000000000000000000000000000000000000000000000000000000000000000000000000000000000000000000000000000
310
000000000000000000000000000000000000000000000000000000000000F5000000000000000000000000000000000000000000000000000000000000000000000000000000000000000000000000000000000000000000000000000000000000000000000000000000000000000000000000000000000000000000000000
310
0000000000000000000000000000000000000000000000000000000000000000000000000000000000000000000000000000F500000000000000000000000000000000000000000000000000000000000000000000000000000000000000000000000000000000000000000000000000000000000000000000000000000000
310
0000000000000000000000000000000000000000000000000000000000000000F500000000000000000000000000000000000000000000000000000000000000000000000000000000000000000000000000000000000000000000000000000000000000000000000000000000000000000000000000000000000000000000
310
00000000000000000000000000000000000000000000000000000000000000000000000000000000000000000000000000000000F50000000000000000000000000000000000000000000000000000000000000000000000000000000000000000000000000000000000000000000000000000000000000000000000000000
310
00000000000000000000000000000000000000000000000000000000000000000000F50000000000000000000000000000000000000000000000000000000000000000000000000000000000000000000000000000000000000000000000000000000000000000000000000000000000000000000000000000000000000000
310
000000000000000000000000000000000000000000000000000000000000000000000000000000000000000000000000000000000000F5000000000000000000000000000000000000000000000000000000000000000000000000000000000000000000000000000000000000000000000000000000000000000000000000
310
000000000000000000000000000000000000000000000000000000000000000000000000F5000000000000000000000000000000000000000000000000000000000000000000000000000000000000000000000000000000000000000000000000000000000000000000000000000000000000000000000000000000000000
310
0000000000000000000000000000000000000000000000000000000000000000000000000000000000000000000000000000000000000000F500000000000000000000000000000000000000000000000000000000000000000000000000000000000000000000000000000000000000000000000000000000000000000000
310
0000000000000000000000000000000000000000000000000000000000000000000000000000F500000000000000000000000000000000000000000000000000000000000000000000000000000000000000000000000000000000000000000000000000000000000000000000000000000000000000000000000000000000
310
00000000000000000000000000000000000000000000000000000000000000000000000000000000000000000000000000000000000000000000F50000000000000000000000000000000000000000000000000000000000000000000000000000000000000000000000000000000000000000000000000000000000000000
310
00000000000000000000000000000000000000000000000000000000000000000000000000000000F50000000000000000000000000000000000000000000000000000000000000000000000000000000000000000000000000000000000000000000000000000000000000000000000000000000000000000000000000000
310
000000000000000000000000000000000000000000000000000000000000000000000000000000000000000000000000000000000000000000000000F5000000000000000000000000000000000000000000000000000000000000000000000000000000000000000000000000000000000000000000000000000000000000
310
000000000000000000000000000000000000000000000000000000000000000000000000000000000000F5000000000000000000000000000000000000000000000000000000000000000000000000000000000000000000000000000000000000000000000000000000000000000000000000000000000000000000000000
310
0000000000000000000000000000000000000000000000000000000000000000000000000000000000000000000000000000000000000000000000000000F500000000000000000000000000000000000000000000000000000000000000000000000000000000000000000000000000000000000000000000000000000000
310
0000000000000000000000000000000000000000000000000000000000000000000000000000000000000000F500000000000000000000000000000000000000000000000000000000000000000000000000000000000000000000000000000000000000000000000000000000000000000000000000000000000000000000
310
00000000000000000000000000000000000000000000000000000000000000000000000000000000000000000000000000000000000000000000000000000000F50000000000000000000000000000000000000000000000000000000000000000000000000000000000000000000000000000000000000000000000000000
310
00000000000000000000000000000000000000000000000000000000000000000000000000000000000000000000F50000000000000000000000000000000000000000000000000000000000000000000000000000000000000000000000000000000000000000000000000000000000000000000000000000000000000000
310
000000000000000000000000000000000000000000000000000000000000000000000000000000000000000000000000000000000000000000000000000000000000F5000000000000000000000000000000000000000000000000000000000000000000000000000000000000000000000000000000000000000000000000
310
000000000000000000000000000000000000000000000000000000000000000000000000000000000000000000000000F5000000000000000000000000000000000000000000000000000000000000000000000000000000000000000000000000000000000000000000000000000000000000000000000000000000000000
310
0000000000000000000000000000000000000000000000000000000000000000000000000000000000000000000000000000000000000000000000000000000000000000F500000000000000000000000000000000000000000000000000000000000000000000000000000000000000000000000000000000000000000000
310
0000000000000000000000000000000000000000000000000000000000000000000000000000000000000000000000000000F500000000000000000000000000000000000000000000000000000000000000000000000000000000000000000000000000000000000000000000000000000000000000000000000000000000
310
00000000000000000000000000000000000000000000000000000000000000000000000000000000000000000000000000000000000000000000000000000000000000000000F50000000000000000000000000000000000000000000000000000000000000000000000000000000000000000000000000000000000000000
310
00000000000000000000000000000000000000000000000000000000000000000000000000000000000000000000000000000000F50000000000000000000000000000000000000000000000000000000000000000000000000000000000000000000000000000000000000000000000000000000000000000000000000000
310
000000000000000000000000000000000000000000000000000000000000000000000000000000000000000000000000000000000000000000000000000000000000000000000000F5000000000000000000000000000000000000000000000000000000000000000000000000000000000000000000000000000000000000
310
000000000000000000000000000000000000000000000000000000000000000000000000000000000000000000000000000000000000F5000000000000000000000000000000000000000000000000000000000000000000000000000000000000000000000000000000000000000000000000000000000000000000000000
310
0000000000000000000000000000000000000000000000000000000000000000000000000000000000000000000000000000000000000000000000000000000000000000000000000000F500000000000000000000000000000000000000000000000000000000000000000000000000000000000000000000000000000000
310
0000000000000000000000000000000000000000000000000000000000000000000000000000000000000000000000000000000000000000F500000000000000000000000000000000000000000000000000000000000000000000000000000000000000000000000000000000000000000000000000000000000000000000
310
00000000000000000000000000000000000000000000000000000000000000000000000000000000000000000000000000000000000000000000000000000000000000000000000000000000F50000000000000000000000000000000000000000000000000000000000000000000000000000000000000000000000000000
310
00000000000000000000000000000000000000000000000000000000000000000000000000000000000000000000000000000000000000000000F50000000000000000000000000000000000000000000000000000000000000000000000000000000000000000000000000000000000000000000000000000000000000000
310
000000000000000000000000000000000000000000000000000000000000000000000000000000000000000000000000000000000000000000000000000000000000000000000000000000000000F5000000000000000000000000000000000000000000000000000000000000000000000000000000000000000000000000
310
000000000000000000000000000000000000000000000000000000000000000000000000000000000000000000000000000000000000000000000000F5F5F5F5F5F5F5F5F5F5F5F5F5F5F5F5F5F5F5F5F5F5F5F5F5F5F5F5F5F5F5F5F5F5F5F5F5F5F5F5F5F5F5F5F5F5F5F5F5F5F5F5F5F5F5F5F5F5F5F5F5F5F5F5F5F5F5
310
F5F5F5F5F5F5F5F5F5F5F5F5F5F5F5F5F5F5F5F5F5F5F5F5F5F5F5F5F5F5F5F5F5F5F5F5F5F5F5F5F5F5F5F5F5F5F5F5F5F5F5F5F5F5F5F5F5F5F5F5F5F5F5F5F5F5F5F5F5F5F5F5F5F5F5F5F5F5F5F5F500000000000000000000000000000000000000000000000000000000000000000000000000000000000000000000
310
00000000000000000000000000000000000000000000000000000000000000000000000000000000000000000000000000000000000000000000000000000000000000000000000000000000000000000000000000000000000000000000000000000000000000000000000000000000000000000000000000000000000000
310
00000000000000000000000000000000000000000000000000000000000000000000000000000000000000000000000000000000000000000000000000000000000000000000000000000000000000000000000000000000000000000000000000000000000000000000000000000000000000000000000000000000000000
310
00000000000000000000000000000000000000000000000000000000000000000000000000000000000000000000000000000000000000000000000000000000000000000000000000000000000000000000000000000000000000000000000000000000000000000000000000000000000000000000000000000000000000
310
00000000000000000000000000000000000000000000000000000000000000000000000000000000000000000000000000000000000000000000000000000000000000000000000000000000000000000000000000000000000000000000000000000000000000000000000000000000000000000000000000000000000000
310
00000000000000000000000000000000000000000000000000000000000000000000000000000000000000000000000000000000000000000000000000000000000000000000000000000000000000000000000000000000000000000000000000000000000000000000000000000000000000000000000000000000000000
310
00000000000000000000000000000000000000000000000000000000000000000000000000000000000000000000000000000000000000000000000000000000000000000000000000000000000000000000000000000000000000000000000000000000000000000000000000000000000000000000000000000000000000
310
00000000000000000000000000000000000000000000000000000000000000000000000000000000000000000000000000000000000000000000000000000000000000000000000000000000000000000000000000000000000000000000000000000000000000000000000000000000000000000000000000000000000000
310
00000000000000000000000000000000000000000000000000000000000000000000000000000000000000000000000000000000000000000000000000000000000000000000000000000000000000000000000000000000000000000000000000000000000000000000000000000000000000000000000000000000000000
310
00000000000000000000000000000000000000000000000000000000000000000000000000000000000000000000000000000000000000000000000000000000000000000000000000000000000000000000000000000000000000000000000000000000000000000000000000000000000000000000000000000000000000
310
00000000000000000000000000000000000000000000000000000000000000000000000000000000000000000000000000000000000000000000000000000000000000000000000000000000000000000000000000000000000000000000000000000000000000000000000000000000000000000000000000000000000000
310
000000000000000000000000000000000000
  0
XRECORD
  5
189
102
{ACAD_REACTORS
330
188
102
}
330
188
100
AcDbXrecord
280
     1
 70
     1
 90
429727718
  1
508B35C9-AEE7-456F-BE74-D52651303AC6
310
504B03040A0000080000B670623B3DEE336E79000000790000001B0000006175746F6465736B2D64657369676E2D7061636B6167652E786D6C3C3F786D6C2076657273696F6E3D22312E302220656E636F64696E673D227574662D3822203F3E3C666F726D6174733E3C666F726D61743E687474703A2F2F736368656D612E
310
6175746F6465736B2E636F6D2F64657369676E2D7061636B6167652F323030393C2F666F726D61743E3C2F666F726D6174733E504B0304140006080800B670623BD486FD9CA0000000F4000000130000005B436F6E74656E745F54797065735D2E786D6C7D8EC10E82300C865F65E91D8A1E8C310C0EEA1BF002731658846E
310
D98AC1B77784ABF1D8FE5FBFBF75BBCE937A534CCEB38643598122B6FEE978D0B0485F9C41B54DDD7D022595594E1A469170414C76A4D9A4D207E29CF43ECE46F218070CC6BECC4078ACAA135ACF422C856C0E68EA1BF5669944DDD7BCDE7B1F8E415D77AECB980613C2E4AC91FC167A2B244592486606FC29C8FD7F045B9A
310
EF7053A7E60B504B0304140006080800B670623B28ED286BEB0000007C01000008000000636F72652E786D6C8D90416EC3201045AF82665B6183218D6D61A254764FD00B204C5C94182C03558F5F9C3852BBEB6A467FFE9B197D71FA9E6FE8CBACC17AD7012D0820E3B41FAD9B3A48F1826B40272956EFE32F1B20A766D3C1
310
268314D3EAD3B24BDABB685CCCAAF3A3D94515828980F42D371D04FD696655A814B3235C8B45E9AB9A4C419F5D8653B2237A1CB163DE672FD6AC209BF3C08E0D1B30EB19C3FC9D72FCC6EB231EFA33EDE96BDD341517E5064B11EDFCBCAF57A3A2194156843498524CAA0FCA5B7268F9E185D42D21A2DCEC7FA0B48CFF8492
310
759155FBBB0F2C80A4F991FB408A72CB22977B50B96EB9C91F504B0304140006080800B670623B55019EA25F0000007C00000007000000636E782E786D6C4DCB3B0E80201045D1AD90E915ED2CF8AC45050C11660C8261F98AB1B07AC9C97D42D718D865D3E909258CFD00CCE24AC6E326A164D74DC0B4128928FF32603847
310
2BA13128B1252AC747C6BAB984FC68F0B87FE8960A5C09FE86CFB69FBA01504B0304140006080800B670623B7BC41AC871010000D40300000C0000006662782F636F72652E786D6CC553ED6E8320147D15C2DF4501B56B6D90A64BBB27D80B50A5CE54C120983EFEAE1F4DD7A56BBA5FF3879273EEE59E7310BE393735EA95
310
ED2AA333CC428A91D2B9292A5D66D8BB63B0C26823B835C67D2BC348CB46657880B1E0A535BE9DA1DC68A7B403549B42CDA0EC3AE530CA6B5864B8CB3F552343E91D5474A7B095F949962A6421D0502778E72C0840D390E18DC5F170E664C205F7BE2A66B62A605A75AC94C522DDEEE3651AEF837817C741F2CE92E02D592D
310
83FD6ECB76EC7595A651C2C9D02CB8AB9A8BBADC2AE954814544691A3016D0E883256BBA58278B17BA5A53CAC9507ED3E4DBE2C9265F691747B3DCA9ADC382819091F8E1162272A8933DE82182932144F88C09DF060D8140C84E1EEA8B8F1340BDCA9DB1093085F157AA97B557309586747CD0EF0B4EA64E983A6E0EAEEFCE
310
889E9EF17847386AA94B30211D2C0FDE0D3AF9A4610EAD5536E8DD1969631B593F67E381C33F5157F17725E5A636F6BF1491F980C8FC7B90E13E8A2F504B0304140006080800B670623B70102A487D0000009D0000000B0000006662782F636E782E786D6C4DCCD10A83201886E15B91FFDC95A5C30335ACCDFB886521330D
310
A76397BF1A1DECE883878F57749FD5A3B74D2F17830472A901D9F088930B8B849267CC01754AA418F3DF0D5018572BE160506249B16C274D761E8BCFBB7A179E27F65CB39A0F14D396184C9921B81F34C3ACA1B4B99ABB6E6F062A25AA5F69DF23ACBE504B0304140006080800B670623B3610CA3329010000120200003100
310
00006662782F42384135303843342D343331462D343546312D424341352D3532343432364645413344462F636F72652E786D6C8D515B6EC32010BC0AE22B55850D0E446E848992B43E412FE000495162B07854397EA176A4F62F3F2C9A9D991D58BEBB8F37F0AD7D30CE76905418026DA553C65E3A98E219B510EC04F7CEC5
310
3F3408EC30EA0E16180A7EF12E4D0B249D8DDAC68C5AA7F4020E21E80881BCE54B0783FCD2E3500D296646B856D320AFC34557A4CAEDCC133C449F0380794839A138B47B86DB2345744D7A44594FD0E1B867883594369BFE63BF7EEF793D0B054FC9A8456E548E63CE46FB674D8A58F068C6477CE9F510B582A2C1F80D1182
310
70F349E816B32D65AFB8DD62CCEB42FF274A937A52948C8DEB66893BCB021484D7734370E5D2E9F608A3EF93F3119479ABA0E50B14B8C298119A43CCC4FCFCECB8A18B6388CEE7EF5D5D4F994BD86CBBA182D76543B9FCAE2FD7B24DF103504B0304140006080800B670623B1B8617914E0100003303000030000000666278
310
2F42384135303843342D343331462D343546312D424341352D3532343432364645413344462F636E782E786D6CD593C16EC32010447F0571AD6CE3D489D20813A9877E410FBD62D82434182CC055F3F75D1292E692438FBD206B7698593D61BEFD1E2DF982108D773D6D6B460938E5B571FB9ECE6957AD29D90A1EBC4F7736
310
4A9C1CA1A759A682EF839FA72269D8C9D92654AD71C72206887E0E0A22CAF926B15E498B01E0AA19451807D01A34B919F16B070157417138917400F2F6FA41FCF0092A45DEE414C19BDC21783E4BD39D891265658C3D8DEA00A3ACE59CBC8678ACB54CB26EEB6BD7839D7E9348BE70AD9C8321B9BCA7F9A4A26C542347DEE0
310
50F09802D22BA6749A800A394DD62899107273365E3C82CFC6A55557BC06C10774B7ABE7AEC3B0F34CF06446280E154026D0542C187BA9DAB6628BF7B6DBB0E5A65B3EB1F58631DE64BBE083F7B65CC218087E22CABB042E51D1F2268F1FE12B3EA24D40D63E9CFE00120194D60B9D5BC67FE6D39CDF37E20AF817881F504B
310
0304140006080800B670623BBFEF2E3B690500003C100000340000006662782F42384135303843342D343331462D343546312D424341352D3532343432364645413344462F6F626A656374732E786D6CAD575D739B3814FD2B0CFB0C98D84E931D4227B6938EA793B6534F3BFB90198F0099B001899144EAECAFDF231018B0
310
D37A3FFC609090EEE7B94757C1FB7D915B2F54C88CB31BDB7727B64559CC938CA53776A576CE956DBD0F03C1B9EA2DB32D460A7A63EB693B0C52C1ABD24C257447AA5C8D66EF177F5832A68CDA569C13296F6C193FD182B8A4523CA1F2D94D88226EBADBBBBEDB2C1C8A4D05299F46424B222853B014F30C52ACC6287F389C
310
D85E1878FA7B18E87FB36AFAF62AAFF667A83F635211161F291B8999FAB3D5DDC5FCDA99CF6653677679E13B8BFBC5CAF1DF4D27CBCBE5F2FAF6EE1A8AA51290642C117467871F101B91C581D77CEA2C36869F3229E68CD1B8F61F1ED6361B89092D294B90C78C4A68EB793D190E7D1D9BDEE7A91E1B95FDE9F3BCEAEFE809
310
6A6D6F9F7D4B79F4275C90E7A04248AA51D5C4C738DAE06F72885AC4796EBE65D22A88A22223B995679120E2D50EB1542F098381188D4EA111AE3DB043FF20AF6F2B4AE3D7D83D65E5AECA730D4D3BAC91BD05FEA992B565D95F549CD6069B90AB2A63EACA38A45E4B6A87D781574F86817E4C2FCCC72690D62E2729520E37
310
9BAF234797BAF6D62B3BFC781FED37BA1E4F2B2F052FA9501A3E80569BB8F6A9A364D4FA67654E6F803383981F82F21591FF84F23D9882BC896C3FDBCF8C162508933B2E0AE4C69DD43F6BD2BE38DDDBF10BF86CB4FA784D37F3AF16075E67EC9030DECA1FC0A55373F5DFF3378C591FA9BDF485C10B0A8C8BA909E5262639
310
A8E72163488806A595734C81CB77D1DE0ED7604A303B76913CEC0272F412782FF88EFF4636D8AA56DF7B322474C4B767303F625997056C7B032C473C592B36CEBD15F3F9FF5233B7ABCDC74D257624A60F8658567497B14CE1EC3C80B76FD02011038F9EE9EB0F2E12387A9C844D3F09855125116D1D731DF8B43D2CF4E0A0
310
79A020C6BE946BCE0B7EA1E1219331CD73C228AF5A2DDD31A4B1DA918CE91350854D40A71723140BFA92E94E62B0626016CEFA5864A50E5977E8753CEDBEE1CBB7F52780D20E17AF0BA0F5F9B02A3AD07DCC732EB6D1EBB661421BE0C39E21BABF0FE16D22EA6929407C8DE596724C88B749B6DB5512BC7B228ADFD7CB7EA6
310
3A22397E690BA8D5D8D4E40CEC8CDA23C2C0B7D5898640101CEC9C6D331CE328CB93CAFBBAC70A642DF70DF95155945B52F08AA973C23469FD69ADEF84F7BB18F983A8F8C90E37F5D35980B2139A1C523540813E824EF83448CF7C72B598CE97D7CEEDDDDD3B6736BFBC771677EF66CE6A7E7139F7A793E9EDF2B2B3A8B624
310
0CDA13AA5F8388264EC4A0129909F3B7F5A16CEDF08128E97D680ACA4B9BE7B7B58BB638F0B00700EF36AE8B32A705658A68F83EE897FC2B41573190D1CCAF0B92D233A47CFEB019D9809933F67DD1A5467F8CF69AD9A5AE859342D45355448C64F968A371DC2D596ADC6E43D93D1B466F877A64E2893E54F23C4B40388995
310
525E5005DA3983ED45412510D3EFCA13737B3863F74BD30F2A12E5B4B5E489A025CE25500DB855B11ACE5BBFA185D35DD48D8DC3CE7DC69F2944DB42AA6F6CF09BCA622ADD08C7A36E7C6AE18000BAB08E040135C2D21C9D75B3A91B77BB746C403F38018DFE6EC939DD92F16B40BC05294B9CDA035AAD6D330AE27FE4786B
310
8E45145EA34A75BE1C263A676A35A8ACC6297337400BF16C54EF515F3F77CB77EB3583889C754FFA29081AA98E2222ADEF05DA3E63D2EDEA8B8756C05A7FB6CABC4A91CBF325398202CC952E70A008A830324BA200D5E5EF8F5F04C75DB4B0EE3340E071C98B823333B83577596BF3849B69F2085AA0FAFA212F26BEFF5877
310
FDE622B28D88A42E49E43326DA82D31E8CB006401E1DA726059ECEC168F97A6599036306A135688F9AD2E61A6EA178F4CD51974A9F2CCB9F36FE5EBD14601068D9C3BF01504B0304140006080000B670623B000000000000000000000000350000006662782F42384135303843342D343331462D343546312D424341352D35
310
32343432364645413344462F76657274696365732E62696E504B0304140006080800B670623BF270F1330600000004000000360000006662782F42384135303843342D343331462D343546312D424341352D3532343432364645413344462F747269616E676C65732E62696E636660600000504B0304140006080000B67062
310
3B000000000000000000000000370000006662782F42384135303843342D343331462D343546312D424341352D3532343432364645413344462F617474726962757465732E62696E504B0304140006080800B670623B08DA0BD19000000041010000360000006662782F42384135303843342D343331462D343546312D4243
310
41352D3532343432364645413344462F6469726563746F72792E786D6C858F410AC3201045AF22B36F53E9A60B35CBEEBAE80D244E44489C6234F4F835464A48035D0DF398FF9F8AF63D0E6CC63039F212F8F9020C7D47C6792B21C5FE7403D62A1188E2E60C98D7234A5830286103A55745067B9D86B8A3CF9C7F90C11DE6
310
07FB144396D7B6A82D282E9A152AD114D5EF2CB866EEE831B8EEA07A7BB5A8D7D61A2BAAEB7FD5F70921FF497D00504B0304140006080800B670623B3B4606F3FE000000A00100003B0000006662782F42384135303843342D343331462D343546312D424341352D3532343432364645413344462F7265736F75726365732F
310
636F72652E786D6C8D504B6E833010BD0A9A6D65B08134808CA354A427E8052C332156828DFCA97AFC9A40A576D7CDCCE87D344F8F9FBEE647F689CE6B6B7A6039850C8DB2A336530F315C4903D94970676DF82583CCC8197B5861107C72362E3BA4AC096842428D1D7107A5F71820538F74F4E0D50D6799CB1892C2DFF345
310
AABB9C306779A2934E701F5C0A906D4FD609C2A1B7D129F4BCD858C163D4E3AED163FAA9AF1A1D88F67CA98E6D35906AA82A52BFB39ABCD5CD915C86331BD86BD3B665CD8BD52C78D0F34F46E550061C419494B6843142CB0F5677F4D0D58717DA7494F26295FF31C565FCA7296A13AA728FBBD93C0896823C09C18BB5AFB4
310
9E65A6BD762BBE01504B010214000A0000080000B670623B3DEE336E79000000790000001B00000000000000000000000000000000006175746F6465736B2D64657369676E2D7061636B6167652E786D6C504B01021400140006080800B670623BD486FD9CA0000000F40000001300000000000000000000000000B2000000
310
5B436F6E74656E745F54797065735D2E786D6C504B01021400140006080800B670623B28ED286BEB0000007C010000080000000000000000000000000083010000636F72652E786D6C504B01021400140006080800B670623B55019EA25F0000007C000000070000000000000000000000000094020000636E782E786D6C50
310
4B01021400140006080800B670623B7BC41AC871010000D40300000C00000000000000000000000000180300006662782F636F72652E786D6C504B01021400140006080800B670623B70102A487D0000009D0000000B00000000000000000000000000B30400006662782F636E782E786D6C504B01021400140006080800B6
310
70623B3610CA3329010000120200003100000000000000000000000000590500006662782F42384135303843342D343331462D343546312D424341352D3532343432364645413344462F636F72652E786D6C504B01021400140006080800B670623B1B8617914E010000330300003000000000000000000000000000D10600
310
006662782F42384135303843342D343331462D343546312D424341352D3532343432364645413344462F636E782E786D6C504B01021400140006080800B670623BBFEF2E3B690500003C10000034000000000000000000000000006D0800006662782F42384135303843342D343331462D343546312D424341352D35323434
310
32364645413344462F6F626A656374732E786D6C504B01021400140006080000B670623B0000000000000000000000003500000000000000000000000000280E00006662782F42384135303843342D343331462D343546312D424341352D3532343432364645413344462F76657274696365732E62696E504B010214001400
310
06080800B670623BF270F133060000000400000036000000000000000000000000007B0E00006662782F42384135303843342D343331462D343546312D424341352D3532343432364645413344462F747269616E676C65732E62696E504B01021400140006080000B670623B00000000000000000000000037000000000000
310
00000000000000D50E00006662782F42384135303843342D343331462D343546312D424341352D3532343432364645413344462F617474726962757465732E62696E504B01021400140006080800B670623B08DA0BD1900000004101000036000000000000000000000000002A0F00006662782F42384135303843342D3433
310
31462D343546312D424341352D3532343432364645413344462F6469726563746F72792E786D6C504B01021400140006080800B670623B3B4606F3FE000000A00100003B000000000000000000000000000E1000006662782F42384135303843342D343331462D343546312D424341352D3532343432364645413344462F72
310
65736F75726365732F636F72652E786D6C504B0506000000000E000E0080040000651100000000
  0
XRECORD
  5
187
102
{ACAD_REACTORS
330
186
102
}
330
186
100
AcDbXrecord
280
     1
 70
     1
 90
429727718
  1
887D55A9-D0DD-414E-B741-A7DCD4DA2B4C
310
504B03040A0000080000B670623B3DEE336E79000000790000001B0000006175746F6465736B2D64657369676E2D7061636B6167652E786D6C3C3F786D6C2076657273696F6E3D22312E302220656E636F64696E673D227574662D3822203F3E3C666F726D6174733E3C666F726D61743E687474703A2F2F736368656D612E
310
6175746F6465736B2E636F6D2F64657369676E2D7061636B6167652F323030393C2F666F726D61743E3C2F666F726D6174733E504B0304140006080800B670623BD486FD9CA0000000F4000000130000005B436F6E74656E745F54797065735D2E786D6C7D8EC10E82300C865F65E91D8A1E8C310C0EEA1BF002731658846E
310
D98AC1B77784ABF1D8FE5FBFBF75BBCE937A534CCEB38643598122B6FEE978D0B0485F9C41B54DDD7D022595594E1A469170414C76A4D9A4D207E29CF43ECE46F218070CC6BECC4078ACAA135ACF422C856C0E68EA1BF5669944DDD7BCDE7B1F8E415D77AECB980613C2E4AC91FC167A2B244592486606FC29C8FD7F045B9A
310
EF7053A7E60B504B0304140006080800B670623BBC1638F5EC0000007C01000008000000636F72652E786D6C8D90416EC3201045AF82665B61836BE2D8C24471DB9CA01740401C94182C03558F5F9C3852BBEB6A467FFE9B197D7EF89E6EE8CB2CC17AD7032D0820E394D7D68D3DA478C67B4007C117EFE32F1B202727D3C3
310
2A83E0E3E2D3BC49CABB685CCCAAF3DA6CA20CC14440EA969B1E82BA98491632C5EC08D76296EA2A4753D06797E194AC468F2356E77DF66CCD02825543D50CACC62D39ED70FDC68EB8FD68F6F8787A6784342D1DDA1D2F5758F068A7E77DB518198D065111D2624A31A93E69DD11D6D5EC85EC3B4278B9DAFF4069D6FF8492
310
75F1B5DADE7D600104CD8FDC0782976B16B9DC83CA75CD4DFC00504B0304140006080800B670623B55019EA25F0000007C00000007000000636E782E786D6C4DCB3B0E80201045D1AD90E915ED2CF8AC45050C11660C8261F98AB1B07AC9C97D42D718D865D3E909258CFD00CCE24AC6E326A164D74DC0B4128928FF326038
310
472BA13128B1252AC747C6BAB984FC68F0B87FE8960A5C09FE86CFB69FBA01504B0304140006080800B670623B3586FFB671010000D40300000C0000006662782F636F72652E786D6CC553ED6E8320147D15C2DF4541A76D6D90A6DDD627D80B50A4CE54C120983EFEAE1F4DD7A55BBA5FF3879273EEE59E7310B6393735EA
310
95ED2AA3731C851423A5A5292A5DE6D8BB63B0C268C39935C67D29C3488B46E578803167A535BE9D2169B453DA01AA4DA16650749D7218C91A1639EEE4876A4428BC838AEE14B6429E44A9C228041AEA38EB9C0501681A32BC313F1ECE8C4C3867DE57C5CC56054CAB8E95B298A7F12E5EEED224C8E87E11242FE936C8DE96
310
AB60BB7F4D295D66D12E5B30323473E6AAE6A24E5A259C2A308F29CD82280A68FC1E256B9AAE93F489AED694323294DF34F9B678B0C957DA3DC7B3DCA9ADC33C022123F1CD2D44E450277AD04338234388F01913BE0D1A0281909D38D4171F27807A259DB1093085F157AA17B557309586747CD0CF0B46A64E983A6E0EAEEF
310
CE881F9EF1FB8E70D44297604238581EBC1B74B249C31C5AAB6CD0BB33D2C636A27ECCC62F0EFF445DC5DF95244D6DEC7F2922F30191F9F720C37DE49F504B0304140006080800B670623B4220A0FF7D0000009D0000000B0000006662782F636E782E786D6C4DCCD10A83201886E15B91FFDCE542CB0335D0EC3E6259C84A
310
C3E9D8E5AF46073BFAE0E1E315DD675BD1DBA5978F41C2FD4600B9F088930F8B849267CC01754AA418F3DF0D50183727E164506249B1EC174D6E1ECB9A0F5D7D785E68DB8151CD286E5A5363CA6B8A39E90D36D40E96B086F55A43A544F52B1D7B86D517504B0304140006080800B670623B2FA3FEDE290100001202000031
310
0000006662782F45374635344235342D363743322D343832342D383044432D4334454645303536354442422F636F72652E786D6C8D515B6EC32010BC0AE22B55850D2E386E848994D7097A0117488A1283C5A3CAF10BB523B57FF961D1ECCCECC0F2ED7DBC816FED8371B687A4C210682B9D32F6D2C314CFA883602BB8772E
310
FEA141608751F7B0C050F08B77695A20E96CD43666D43AA5177008414708E42D5F7A18E4971E876A483133C2B59A06791D2EBA22556E679EE021FA1C00CC43CA09C5717D6274C7286AD7FB06D1AEA1A8C3873DDAD3E3E98859CB0EBB1DAF67A1E02919B5C88DCA71CCD968FFAC49110B1ECDF8882FBD1EA256503418BF2342
310
106E3E08DD60B6A1EC15771B8C795DE8FF4469524F8A92B1F1AD59E2CEB20005E1F5DC105CB9F4797B84D1F7C9F908CABC55D0F2050A5C61CC1AD2F27A26E6E767C7962E8E213A9FBF7775FDCC5CC266DB960A5E970DE5F2BBBE5CCB36C50F504B0304140006080800B670623B1B8617914E01000033030000300000006662
310
782F45374635344235342D363743322D343832342D383044432D4334454645303536354442422F636E782E786D6CD593C16EC32010447F0571AD6CE3D489D20813A9877E410FBD62D82434182CC055F3F75D1292E692438FBD206B7698593D61BEFD1E2DF982108D773D6D6B460938E5B571FB9ECE6957AD29D90A1EBC4F77
310
364A9C1CA1A759A682EF839FA72269D8C9D92654AD71C72206887E0E0A22CAF926B15E498B01E0AA19451807D01A34B919F16B070157417138917400F2F6FA41FCF0092A45DEE414C19BDC21783E4BD39D891265658C3D8DEA00A3ACE59CBC8678ACB54CB26EEB6BD7839D7E9348BE70AD9C8321B9BCA7F9A4A26C542347DE
310
E050F09802D22BA6749A800A394DD62899107273365E3C82CFC6A55557BC06C10774B7ABE7AEC3B0F34CF06446280E154026D0542C187BA9DAB6628BF7B6DBB0E5A65B3EB1F58631DE64BBE083F7B65CC218087E22CABB042E51D1F2268F1FE12B3EA24D40D63E9CFE00120194D60B9D5BC67FE6D39CDF37E20AF817881F50
310
4B0304140006080800B670623B29652116630500003C100000340000006662782F45374635344235342D363743322D343832342D383044432D4334454645303536354442422F6F626A656374732E786D6CAD575D739B3814FD2B0CFB0C989834C90EA1639B24E3E9A6EDD4D3CE3E64C623834CD8006224913AFDF57B040203
310
B65BEF871F0C12D2FD3CF7E8CA7FBFCB33E3957291B2E2D674ED8969D02262715A24B76625B7D6B569BC0F7CCE98EC2D338D82E4F4D654D366E0279C55A59E8AE99654991CCDDECFFF3444440B6A1A514684B83545F44C7362934AB2988A173B2692D8C97667BB76B3702836E1A47C1E092D09A78584A5982F20C5688C7287
310
C389E904BEA3BE07BEFAD7ABA6A75739B53F43FD69212429A20365233153D70BEF2E2E6FAC4BCF9B5ADEBB0BD79ADFCF43CBBD9A4E16EF168B9BD9DD0D140BC921495BC2E9D60C1E101B9E46BED37CEA2CD6861F3329624541A3DA7F7858DBAC25C6B4A4458C3CA654405BCFEBC970E8AAD8F43E4FD558ABEC4F9FE7557F47
310
4F506B7BFBEC5BCA367FC105710E2AB8A00A554D7CB4A30DFE26FBA86D18CBF4B75418399194A72433B274C3097F33032C554B027F2046A1932B842B0FCCC0DDCBEBDB8AD2F835768F59B9ADB24C41D30C6A64AF817F2A456D59FA83F2E3DA60137255A585BCD60EC9B7929AC18DEFD49381AF1ED30BFDB109A4B1CD488294
310
C3CDE6EBC8D185AABD6568061FEE37BB95AAC7E3CA4BCE4ACAA5820FA0D526AE7DAA2869B5EE5999531BE0CC20E6FBA07C41E43FA27CF7A6206F3CDD793B4F6B919C1462CB788EDCD893FA674CDA17AB7B3B7C019F8D561FAEE966FED562DFE98C1D12C6A9FC015C2A35D7FF3D7FC398F591DA4B5FE0BFA2C0189FEA50AE22
310
92817A1ED3020951A03432862970F976B33383259812CC8E5D240BBA801CBCF8CE2BBEE3BF910DB6AAD5F79E05123AE2DB33981FB1ACCB02B69D00CB014FD68AB573A7627EF9BFD4CC2C5C7D58557C4B22FAA88925A4DBB44825CECE3D78FB060D1231F0E885BE7D673C86A3874958F593906B5502D1563157814FDAC3420D
310
F69A070A22EC4B98E23CFF171A1E5311D12C23056555ABA53B8614563B92D17D02AAB009E8F46284624E5F53D5490C560CCCC2591FF1B45421EB0EBD8EA7ED13BE7C5D7E0428CD60FEF60779EB13E6664FF711CB185F6FDED60D139A001FF60CD1FD6D086F1D51474901E26B2CB794A343BC8ED3EDB612E0DD2351FCB65CF4
310
33D511C9E14B5B40ADC6A6263DB0336A8F700DDF56271A024E70B0B3629DE21847591E55DED73D56206AB927E46FAABC5C939C55853C274C93D69FD6FA4E78BF8B11DF898C9ECD60553FAD39283BA6F18984AA23E8884F83F45C5F5F859797B31B2B9C84A1E5B9DE9D35BFF25C6B76152E422F9C5DCC3D847F5801ED09D5AF
310
41441327A25FF15487F9EB725FB666F048A4701E9A827292E6F97569A32DF61DEC01C0BB8DCBBCCC684E0B49147C1FD54BF685A0AB18C868E6973949E819523E3DAC463660E68C7D9F55A9D1EFA3BD7A76A16AE1A810F95CE59B82A4D968A376DC2E8B44BBDD86B27B368CDE0ED548C7137DA860591A83706223A12CA712B4
310
7306DBF39C0A20A6DF95C7FAF670C6EED7A61F946493D1D6926782963813403548A78AE470DEF80D2D9CEAA26E4D1C76F60BFE74219A06527D6B82DF641A51616F703CAAC6A7160E08A00BEB4810A0274592A1B36E3675E36E978A0DE80727A0D6DF2D39A75BD27E0D8837276589537B40ABB56D5A41F48F1C6FCD3188C4EB
310
A6929D2FFB89CE995A4D00AE813BDD032DC48B56BD437DFDDC2DD7AED70C2272D63DE9A72068A45A92F0A4BE17A8A06B9366E16707AD80B1FC649459952097E74BB23805982B55E0401150A165964402AA8BDF9F3E7386BB686EDCA780C0D382E5392BF460A6EFB2C6EA1937D3F809B440D5F5435C4C5CF7A9EEFAF54564BD
310
2182DA24162F98680B4E7930C21A0079709CEAEB99A372305ABE0C0D7D6078105A83F6A0296DAEE1068A47DD1C55A9F4C9B2FC69E3EFD44B81028E963DF81B504B0304140006080000B670623B000000000000000000000000350000006662782F45374635344235342D363743322D343832342D383044432D433445464530
310
3536354442422F76657274696365732E62696E504B0304140006080800B670623BF270F1330600000004000000360000006662782F45374635344235342D363743322D343832342D383044432D4334454645303536354442422F747269616E676C65732E62696E636660600000504B0304140006080000B670623B00000000
310
0000000000000000370000006662782F45374635344235342D363743322D343832342D383044432D4334454645303536354442422F617474726962757465732E62696E504B0304140006080800B670623B08DA0BD19000000041010000360000006662782F45374635344235342D363743322D343832342D383044432D4334
310
454645303536354442422F6469726563746F72792E786D6C858F410AC3201045AF22B36F53E9A60B35CBEEBAE80D244E44489C6234F4F835464A48035D0DF398FF9F8AF63D0E6CC63039F212F8F9020C7D47C6792B21C5FE7403D62A1188E2E60C98D7234A5830286103A55745067B9D86B8A3CF9C7F90C11DE607FB144396
310
D7B6A82D282E9A152AD114D5EF2CB866EEE831B8EEA07A7BB5A8D7D61A2BAAEB7FD5F70921FF497D00504B0304140006080800B670623B6378F24DFF000000A00100003B0000006662782F45374635344235342D363743322D343832342D383044432D4334454645303536354442422F7265736F75726365732F636F72652E
310
786D6C8D504B6E833010BD0A9A6D65B0094E42641C85B639412F6099496225D8C89FAAC7AF09546A77DDCC8CDE47F3F4C4F16B7C149FE88371B603565228D06A37187BED20C50BD9437194C23B177FC9A0B06AC40E6618A4B87A97A615D2CE46B431A3D60DB8822A048C50E8473E3A08FA86A32A558A5911EEE5A4F45D5DB1
310
6465A6B34E8A107D0E502C4FE609D26370C96B0CA25A58295232C3AA3143FE692E063D485EF7F5AEE71BD2D2F39634AFFC44DAF7DD9E9CCE6F9CD25DCBFA762BAAD92C4534E34F46ED51451C40D694B6843142EB0FD61C283F34FC85EE0F948A6A96FF31A569F8A729191B37F51A77B105902C0779125254735F793DCBCC7B
310
EE567E03504B010214000A0000080000B670623B3DEE336E79000000790000001B00000000000000000000000000000000006175746F6465736B2D64657369676E2D7061636B6167652E786D6C504B01021400140006080800B670623BD486FD9CA0000000F40000001300000000000000000000000000B20000005B436F6E
310
74656E745F54797065735D2E786D6C504B01021400140006080800B670623BBC1638F5EC0000007C010000080000000000000000000000000083010000636F72652E786D6C504B01021400140006080800B670623B55019EA25F0000007C000000070000000000000000000000000095020000636E782E786D6C504B010214
310
00140006080800B670623B3586FFB671010000D40300000C00000000000000000000000000190300006662782F636F72652E786D6C504B01021400140006080800B670623B4220A0FF7D0000009D0000000B00000000000000000000000000B40400006662782F636E782E786D6C504B01021400140006080800B670623B2F
310
A3FEDE290100001202000031000000000000000000000000005A0500006662782F45374635344235342D363743322D343832342D383044432D4334454645303536354442422F636F72652E786D6C504B01021400140006080800B670623B1B8617914E010000330300003000000000000000000000000000D2060000666278
310
2F45374635344235342D363743322D343832342D383044432D4334454645303536354442422F636E782E786D6C504B01021400140006080800B670623B29652116630500003C10000034000000000000000000000000006E0800006662782F45374635344235342D363743322D343832342D383044432D4334454645303536
310
354442422F6F626A656374732E786D6C504B01021400140006080000B670623B0000000000000000000000003500000000000000000000000000230E00006662782F45374635344235342D363743322D343832342D383044432D4334454645303536354442422F76657274696365732E62696E504B01021400140006080800
310
B670623BF270F13306000000040000003600000000000000000000000000760E00006662782F45374635344235342D363743322D343832342D383044432D4334454645303536354442422F747269616E676C65732E62696E504B01021400140006080000B670623B0000000000000000000000003700000000000000000000
310
000000D00E00006662782F45374635344235342D363743322D343832342D383044432D4334454645303536354442422F617474726962757465732E62696E504B01021400140006080800B670623B08DA0BD190000000410100003600000000000000000000000000250F00006662782F45374635344235342D363743322D34
310
3832342D383044432D4334454645303536354442422F6469726563746F72792E786D6C504B01021400140006080800B670623B6378F24DFF000000A00100003B00000000000000000000000000091000006662782F45374635344235342D363743322D343832342D383044432D4334454645303536354442422F7265736F75
310
726365732F636F72652E786D6C504B0506000000000E000E0080040000611100000000
  0
XRECORD
  5
112
102
{ACAD_REACTORS
330
110
102
}
330
110
100
AcDbXrecord
280
     1
270
     1
271
     1
  0
XRECORD
  5
111
102
{ACAD_REACTORS
330
110
102
}
330
110
100
AcDbXrecord
280
     1
270
     1
271
     1
  0
XRECORD
  5
18A
102
{ACAD_REACTORS
330
110
102
}
330
110
100
AcDbXrecord
280
     1
 70
     0
 90
1778669749
  1
9BF507EE-FAF7-4A99-A33D-4EE51894BC40
310
504B03040A0000080000B670623B3DEE336E79000000790000001B0000006175746F6465736B2D64657369676E2D7061636B6167652E786D6C3C3F786D6C2076657273696F6E3D22312E302220656E636F64696E673D227574662D3822203F3E3C666F726D6174733E3C666F726D61743E687474703A2F2F736368656D612E
310
6175746F6465736B2E636F6D2F64657369676E2D7061636B6167652F323030393C2F666F726D61743E3C2F666F726D6174733E504B0304140006080800B670623BD486FD9CA0000000F4000000130000005B436F6E74656E745F54797065735D2E786D6C7D8EC10E82300C865F65E91D8A1E8C310C0EEA1BF002731658846E
310
D98AC1B77784ABF1D8FE5FBFBF75BBCE937A534CCEB38643598122B6FEE978D0B0485F9C41B54DDD7D022595594E1A469170414C76A4D9A4D207E29CF43ECE46F218070CC6BECC4078ACAA135ACF422C856C0E68EA1BF5669944DDD7BCDE7B1F8E415D77AECB980613C2E4AC91FC167A2B244592486606FC29C8FD7F045B9A
310
EF7053A7E60B504B0304140006080800B670623BCA089DFFEC0000007C01000008000000636F72652E786D6C8D90416E83301045AF62CDB632D8402020E32882F604BD80653BC44AB011B6AB1EBF262152BBEB6A467FFE9B197D76FA9EEFE84BAFDE38DB03CD08206DA553C64E3DC470C1474027CE56E7C22F1B202B66DDC3
310
260367D3EAE2B24BD2D9A06D48AA754AEFA2F05E0740F29E9A1EBCBCEA59642286E4F0B76C11F226269DD15797E0188D42CF2346A57DE662F40ABCAEC77628C6120F654571D50C04B7F5B9C1E3997CD4F550BE3745C3F20DE62C98F9755FAE5A04AD801784B498524C8A4F5A75E4D055873772EC0861F966FF03C545FD138A
310
C686B2D8DF7D621E384D8F3C069CE55B16A93C824A75CB8DFF00504B0304140006080800B670623B55019EA25F0000007C00000007000000636E782E786D6C4DCB3B0E80201045D1AD90E915ED2CF8AC45050C11660C8261F98AB1B07AC9C97D42D718D865D3E909258CFD00CCE24AC6E326A164D74DC0B4128928FF326038
310
472BA13128B1252AC747C6BAB984FC68F0B87FE8960A5C09FE86CFB69FBA01504B0304140006080800B670623B68FC0B7272010000D40300000C0000006662782F636F72652E786D6CC5535B6E833010BC8AE5DF0A6C1E8124328E22D29EA01770C0A128602363A31CBFCB234A53A555FA553EC09AD9F5CE8C31DB5DDA060D
310
D2F4B556190E7C8A9154852E6B5565D8D993B7C668C799D1DA7E29C3488956667884316795D1AE5BA0422B2B950554E9522EA0E87B69312A1A5864B82F3E642B7CE12C54F467BF13C55954D20F7CA0A18EB3DE1A1080E621E31BF3D3F1C2C88C73E65C5D2E6C5DC2B4FA544B8379921C36797888BC3C8A032F4E73EA6D927D
310
EA1DF6F42D49F2E8350D5346C666CE6CDD5ED515460A2B4BCC434A375E1078347C0FE22D5D6DE3D50B5D6F2965642CBF6B725DF96493AB958DC245EEDCD6631E809089F8E61622B2A81703E8219C913144F84C09DF070D8140C8561C9BAB8F3340832CAC363130A576376A108D933095FA747AD0CF0B46E64E983A6D0EAE1F
310
CE089F9EF1FB8E70D44255604258581E9D1D75B259C3125A278D37D80B52DAB4A279CEC62F0EFF44DDC43F9454E8469BFF5244960322CBEF41C6FBC83F01504B0304140006080800B670623B0F71DDB67E0000009D0000000B0000006662782F636E782E786D6C4DCCD10A83201886E15B91FFDCA54DB73F502386BB8F5816
310
32D3703976F9ABD1C18E3E78F87855FB990379BBFCF2296AE02706C4C5471A7C9C349475A408A4352AA7B4FEDD80C47E761A7606A3A69CCA72D0E0C6BE8475D3E0E3F3409428EA6B27A84079A782899AA2EC1A7AE3ECCC2FD858CB2D544655BFD2B67BD87C01504B0304140006080800B670623BE134B4FB28010000120200
310
00310000006662782F38353834323741342D343835462D343034322D383541392D4331303331363839454531452F636F72652E786D6C8D515B6EC32010BC0AE22B55850D0EA424C24451959EA0172086A42831583CAA1CBF503B52FB971F16CDCECC0EACD8DFC71BF836215AEF7A481A0C817183D7D65D7A98D3197108F652
310
04EFD31F1A044E8DA6871586525C82CFD3020DDE25E352419DD76601558C264130DCCAA58771F832A36A544E8511AFCDA486ABBA988634A55D7852C4144A00300FA927949C71DABD1D28A29C7D208A6987383B6CD13BC16BB2E1DBE3911C453B0BA5C8D9EA456E758963CFD684674DAA588A64C747FC2118958C86B2C3788B
310
0841B8FB247487D98EB257CC77188BB6D2FF89F2A49F1465EBD2BA5BE2CEB2082511EDDC9042FB7CBA3DC298FBE4430275DE2A9AE1054ADC60CC08E3A29D89E5F9C5714317C7987C28DFBBBA9E0A97B0D97643A568EB864AF95D5FA9759BF207504B0304140006080800B670623B1B8617914E010000330300003000000066
310
62782F38353834323741342D343835462D343034322D383541392D4331303331363839454531452F636E782E786D6CD593C16EC32010447F0571AD6CE3D489D20813A9877E410FBD62D82434182CC055F3F75D1292E692438FBD206B7698593D61BEFD1E2DF982108D773D6D6B460938E5B571FB9ECE6957AD29D90A1EBC4F
310
77364A9C1CA1A759A682EF839FA72269D8C9D92654AD71C72206887E0E0A22CAF926B15E498B01E0AA19451807D01A34B919F16B070157417138917400F2F6FA41FCF0092A45DEE414C19BDC21783E4BD39D891265658C3D8DEA00A3ACE59CBC8678ACB54CB26EEB6BD7839D7E9348BE70AD9C8321B9BCA7F9A4A26C542347
310
DEE050F09802D22BA6749A800A394DD62899107273365E3C82CFC6A55557BC06C10774B7ABE7AEC3B0F34CF06446280E154026D0542C187BA9DAB6628BF7B6DBB0E5A65B3EB1F58631DE64BBE083F7B65CC218087E22CABB042E51D1F2268F1FE12B3EA24D40D63E9CFE00120194D60B9D5BC67FE6D39CDF37E20AF817881F
310
504B0304140006080800B670623B5933D422630500003B100000340000006662782F38353834323741342D343835462D343034322D383541392D4331303331363839454531452F6F626A656374732E786D6CAD575B6FA33814FE2B887D0642934E9B156594264D158D3A534DD4D13E548A0C38942D60649B4EBABF7E3F8321
310
40924EF6928780CDF1B97EE762EFF32E4B8D37CA45C2F21BD3B547A641F39045491EDF98A5DC5AD7A6F1D9F73863B243661A39C9E88DA9B64DDF8B392B0BBD15D12D295339D85DDEFE618890E6D434C2940871638AF08566C426A5641115AF764424B1E3EDCE76ED9AB0CF36E6A47819302D08A7B984A6D8CFC1C5A89572FB
310
CB91E9F89EA3BEFB9EFAD754E3D3544E654F5F7E920B49F2F040D880CDD89D2CEE2E2EA7D6E56432B6269F2E5CEB7679BBB0DCABF168FE693E9FCEEEA6102C240727AD09A75BD3BF876F78127A4EFDA9D5582B7E4CA590E5390D2BFB6161A5B3E618D182E611E2985001691DAB47FDA5AB7CD3F93C566B2DB2BB7D9E55DD13
310
1D468DEECDB3AB290BFE8409E21C54704115AA6AFF68436BFC8DF65E0B184BF5B74418199194272435D224E084BF9B3E481589EFF5D828747285706581E9BB7B7E5D5D911ABFC6EE312DB7659A2A689A7E85EC0DF04FA5A8344BFEA2FCB834E8845895492EAFB541F2BDA0A63FF59C6AD3F7D4637CA13FD68E34B629891172
310
98597F1D183A57B9B75A98FE9765B05BAB7C3C2EBCE0ACA05C2AF8005A4DE09AA7F29216EB9E15397500C6F47CBE77CA7778FE2BD277AF0AE2C693DD6437D1522427B9D8329E2136F6A8FA19A3E6C56ADF0E5F50CF06D48734EDCEBF22F69C56D97EC138153F804B85E6FABFC7AFEFB32E523BE1F3BD372418E363EDCA7548
310
52949E8724474014288D94610BB57C1BEC4C7F854A89CA8E5324F55B871CBC78CE1BBEE3BFE68D6A5589EF3C730474506FCFA8FCF0659516D0ED04580EEA6425581B77CAE797FF4BCECC16EB2FEB926F49481F746159D06D922712BD730FDEAE42BD40F42C7AA5EF3F198F60E86110D6DD20645A9480B795CF95E3E3A659A8
310
C55E724F408873315335CFFB8584874484344D494E59D94869DB90C26A5B64F49C802CAC1D3ABE18A098D3B7444D123D8A9E5AE8F5214F0AE5B2B6E9B575DA3E61CBD3EA2B4009FA940524DD1305FB6A1FB294F14DF0BEA90BA109ECE1481FDC3FFAE8D60E75141700BE82725371B4873751B2DD960265F788137FACE6DD40
310
B575E4F0A5C99F46629D92131467A41EE11ABD8D4CCC039CA0AFB37C93A08B232B8F0AEFCA1E0A1015DF13FC83322B362463652ECF71D3A8B1A7D1BE65DE1D62C44F22C317D35F574FEB16153BA2D13E543D10A80E74C4A65E78A6B7CBCBD1D5DD9DB59C2DAFACC96C3AB566E3F1C29ADCDD5DBAD7D3C9ED7C822ED74F80A6
310
41755310DE4443F44A9E68373FADF6596BFA0F440AE7BECE2727AE9F4F2B1B53B1E7E00CF0DD1E5C65454A339A4BA2D0FBA05ED2EF0443458F47BDBFCA484CCFE0F2ED7E3DD0013B679C7B5499467F0ECEEADDB9CA85A34CE44B99053949D2C1416DB85DE4B136BB7165FBAC0B7AB3542BED4F8CA182A549847A1319316519
310
95A83A67147B9E5101C47487F2485F1ECE38FD568F839204296D3479219888530154036E6528FBFBC66F98E0D4107563A2D7D9AFF8D389681A08F58D89F22693900A3B407754734FC51C10C010D6D640809EE4718AC1BA3ED4AEDB53CA37283F68805A7E4B72CEB0A4EDEAD5DD8C14059A76AFAA56BA6901E13F32BC51C720
310
12AF41295B5BF61BAD3195181FB506E6B40F4C10AF5AF40EF9F5B159AE5DD1F43C72D635E94310D45C2D49785C5D0B94D3B54AB3C5A38349C0587D338AB48C11CBF339599C02CCA54A70A008A8D03C0B2201D5F9EFCF8F9CE12A9A19CB0410789EB32C63B95ECCF455D658BFE0621A3DA32C5075FB101723D77DAE867E7D0F
310
D90444509B44E2151B4DC2290B065803200FBAA9BE9D392A0603F2D5C2D00D6302A615680F66D2FA166E2079D4C551A54AB758161FCEFD4E450A14704CECFEDF504B0304140006080000B670623B000000000000000000000000350000006662782F38353834323741342D343835462D343034322D383541392D4331303331
310
363839454531452F76657274696365732E62696E504B0304140006080800B670623BF270F1330600000004000000360000006662782F38353834323741342D343835462D343034322D383541392D4331303331363839454531452F747269616E676C65732E62696E636660600000504B0304140006080000B670623B000000
310
000000000000000000370000006662782F38353834323741342D343835462D343034322D383541392D4331303331363839454531452F617474726962757465732E62696E504B0304140006080800B670623B08DA0BD19000000041010000360000006662782F38353834323741342D343835462D343034322D383541392D43
310
31303331363839454531452F6469726563746F72792E786D6C858F410AC3201045AF22B36F53E9A60B35CBEEBAE80D244E44489C6234F4F835464A48035D0DF398FF9F8AF63D0E6CC63039F212F8F9020C7D47C6792B21C5FE7403D62A1188E2E60C98D7234A5830286103A55745067B9D86B8A3CF9C7F90C11DE607FB1443
310
96D7B6A82D282E9A152AD114D5EF2CB866EEE831B8EEA07A7BB5A8D7D61A2BAAEB7FD5F70921FF497D00504B0304140006080800B670623BD9A3B367FE000000A00100003B0000006662782F38353834323741342D343835462D343034322D383541392D4331303331363839454531452F7265736F75726365732F636F7265
310
2E786D6C8D504B6E833010BD0A9A6D65B01D0201194711694FD00B586642AD043BF2A7EAF16B122AB5BB6E6646EFA3797AE2F8B5DC8A4FF4C1383B002B291468B59B8C9D0748F1420E501CA5F0CEC55F3228AC5A708015062966EFD27D83B4B3116DCCA875136EA00A012314FA968F0182FEC045952AC5AC08D7F2AEF455CD
310
58B232D3592745883E07289E4FD609D26370C96B0CA27AB252A464A64D63A6FCD35C0C7A904D73EE467EE664DCD58CD4ED4849D79C5A723ED1B7A61977AF2D6F45B59AA58866F9C9A83DAA8813484E6947182394BFB3BAA7FBBEDEBFD0434FA9A856F91F53BA4FFF342563E38E6F719FB60092E5200F428A6AED2BAF479979
310
AFDDCA6F504B010214000A0000080000B670623B3DEE336E79000000790000001B00000000000000000000000000000000006175746F6465736B2D64657369676E2D7061636B6167652E786D6C504B01021400140006080800B670623BD486FD9CA0000000F40000001300000000000000000000000000B20000005B436F6E
310
74656E745F54797065735D2E786D6C504B01021400140006080800B670623BCA089DFFEC0000007C010000080000000000000000000000000083010000636F72652E786D6C504B01021400140006080800B670623B55019EA25F0000007C000000070000000000000000000000000095020000636E782E786D6C504B010214
310
00140006080800B670623B68FC0B7272010000D40300000C00000000000000000000000000190300006662782F636F72652E786D6C504B01021400140006080800B670623B0F71DDB67E0000009D0000000B00000000000000000000000000B50400006662782F636E782E786D6C504B01021400140006080800B670623BE1
310
34B4FB280100001202000031000000000000000000000000005C0500006662782F38353834323741342D343835462D343034322D383541392D4331303331363839454531452F636F72652E786D6C504B01021400140006080800B670623B1B8617914E010000330300003000000000000000000000000000D3060000666278
310
2F38353834323741342D343835462D343034322D383541392D4331303331363839454531452F636E782E786D6C504B01021400140006080800B670623B5933D422630500003B10000034000000000000000000000000006F0800006662782F38353834323741342D343835462D343034322D383541392D4331303331363839
310
454531452F6F626A656374732E786D6C504B01021400140006080000B670623B0000000000000000000000003500000000000000000000000000240E00006662782F38353834323741342D343835462D343034322D383541392D4331303331363839454531452F76657274696365732E62696E504B01021400140006080800
310
B670623BF270F13306000000040000003600000000000000000000000000770E00006662782F38353834323741342D343835462D343034322D383541392D4331303331363839454531452F747269616E676C65732E62696E504B01021400140006080000B670623B0000000000000000000000003700000000000000000000
310
000000D10E00006662782F38353834323741342D343835462D343034322D383541392D4331303331363839454531452F617474726962757465732E62696E504B01021400140006080800B670623B08DA0BD190000000410100003600000000000000000000000000260F00006662782F38353834323741342D343835462D34
310
3034322D383541392D4331303331363839454531452F6469726563746F72792E786D6C504B01021400140006080800B670623BD9A3B367FE000000A00100003B000000000000000000000000000A1000006662782F38353834323741342D343835462D343034322D383541392D4331303331363839454531452F7265736F75
310
726365732F636F72652E786D6C504B0506000000000E000E0080040000611100000000
  0
XRECORD
  5
113
102
{ACAD_REACTORS
330
110
102
}
330
110
100
AcDbXrecord
280
     1
270
     1
271
     1
  0
XRECORD
  5
114
102
{ACAD_REACTORS
330
110
102
}
330
110
100
AcDbXrecord
280
     1
270
     1
271
     1
  0
XRECORD
  5
2C9D
102
{ACAD_REACTORS
330
2C9C
102
}
330
2C9C
100
AcDbXrecord
280
     1
102
DISPLAYNAME
  1
Imperial24
102
FLAGS
 90
        0
  0
XRECORD
  5
2CA1
102
{ACAD_REACTORS
330
2CA0
102
}
330
2CA0
100
AcDbXrecord
280
     1
102
DISPLAYNAME
  1
Metric50
102
FLAGS
 90
        0
  0
CELLSTYLEMAP
  5
2C61
102
{ACAD_REACTORS
330
104
102
}
330
104
100
AcDbCellStyleMap
 90
        3
300
CELLSTYLE
  1
TABLEFORMAT_BEGIN
 90
        5
170
     1
 91
        0
 92
    32768
 62
   257
 93
        1
300
CONTENTFORMAT
  1
CONTENTFORMAT_BEGIN
 90
        0
 91
        0
 92
      512
 93
        0
300

 40
0.0
140
1.0
 94
        5
 62
     0
340
11
144
0.25
309
CONTENTFORMAT_END
171
     1
301
MARGIN
  1
CELLMARGIN_BEGIN
 40
0.06
 40
0.06
 40
0.06
 40
0.06
 40
0.18
 40
0.18
309
CELLMARGIN_END
 94
        6
 95
        1
302
GRIDFORMAT
  1
GRIDFORMAT_BEGIN
 90
        0
 91
        1
 62
     0
 92
       -2
340
0
 93
        0
 40
0.045
309
GRIDFORMAT_END
 95
        2
302
GRIDFORMAT
  1
GRIDFORMAT_BEGIN
 90
        0
 91
        1
 62
     0
 92
       -2
340
0
 93
        0
 40
0.045
309
GRIDFORMAT_END
 95
        4
302
GRIDFORMAT
  1
GRIDFORMAT_BEGIN
 90
        0
 91
        1
 62
     0
 92
       -2
340
0
 93
        0
 40
0.045
309
GRIDFORMAT_END
 95
        8
302
GRIDFORMAT
  1
GRIDFORMAT_BEGIN
 90
        0
 91
        1
 62
     0
 92
       -2
340
0
 93
        0
 40
0.045
309
GRIDFORMAT_END
 95
       16
302
GRIDFORMAT
  1
GRIDFORMAT_BEGIN
 90
        0
 91
        1
 62
     0
 92
       -2
340
0
 93
        0
 40
0.045
309
GRIDFORMAT_END
 95
       32
302
GRIDFORMAT
  1
GRIDFORMAT_BEGIN
 90
        0
 91
        1
 62
     0
 92
       -2
340
0
 93
        0
 40
0.045
309
GRIDFORMAT_END
309
TABLEFORMAT_END
  1
CELLSTYLE_BEGIN
 90
        1
 91
        1
300
_TITLE
309
CELLSTYLE_END
300
CELLSTYLE
  1
TABLEFORMAT_BEGIN
 90
        5
170
     1
 91
        0
 92
        0
 62
   257
 93
        1
300
CONTENTFORMAT
  1
CONTENTFORMAT_BEGIN
 90
        0
 91
        0
 92
      512
 93
        0
300

 40
0.0
140
1.0
 94
        5
 62
     0
340
11
144
0.18
309
CONTENTFORMAT_END
171
     1
301
MARGIN
  1
CELLMARGIN_BEGIN
 40
0.06
 40
0.06
 40
0.06
 40
0.06
 40
0.18
 40
0.18
309
CELLMARGIN_END
 94
        6
 95
        1
302
GRIDFORMAT
  1
GRIDFORMAT_BEGIN
 90
        0
 91
        1
 62
     0
 92
       -2
340
0
 93
        0
 40
0.045
309
GRIDFORMAT_END
 95
        2
302
GRIDFORMAT
  1
GRIDFORMAT_BEGIN
 90
        0
 91
        1
 62
     0
 92
       -2
340
0
 93
        0
 40
0.045
309
GRIDFORMAT_END
 95
        4
302
GRIDFORMAT
  1
GRIDFORMAT_BEGIN
 90
        0
 91
        1
 62
     0
 92
       -2
340
0
 93
        0
 40
0.045
309
GRIDFORMAT_END
 95
        8
302
GRIDFORMAT
  1
GRIDFORMAT_BEGIN
 90
        0
 91
        1
 62
     0
 92
       -2
340
0
 93
        0
 40
0.045
309
GRIDFORMAT_END
 95
       16
302
GRIDFORMAT
  1
GRIDFORMAT_BEGIN
 90
        0
 91
        1
 62
     0
 92
       -2
340
0
 93
        0
 40
0.045
309
GRIDFORMAT_END
 95
       32
302
GRIDFORMAT
  1
GRIDFORMAT_BEGIN
 90
        0
 91
        1
 62
     0
 92
       -2
340
0
 93
        0
 40
0.045
309
GRIDFORMAT_END
309
TABLEFORMAT_END
  1
CELLSTYLE_BEGIN
 90
        2
 91
        1
300
_HEADER
309
CELLSTYLE_END
300
CELLSTYLE
  1
TABLEFORMAT_BEGIN
 90
        5
170
     1
 91
        0
 92
        0
 62
   257
 93
        1
300
CONTENTFORMAT
  1
CONTENTFORMAT_BEGIN
 90
        0
 91
        0
 92
      512
 93
        0
300

 40
0.0
140
1.0
 94
        2
 62
     0
340
11
144
0.18
309
CONTENTFORMAT_END
171
     1
301
MARGIN
  1
CELLMARGIN_BEGIN
 40
0.06
 40
0.06
 40
0.06
 40
0.06
 40
0.18
 40
0.18
309
CELLMARGIN_END
 94
        6
 95
        1
302
GRIDFORMAT
  1
GRIDFORMAT_BEGIN
 90
        0
 91
        1
 62
     0
 92
       -2
340
0
 93
        0
 40
0.045
309
GRIDFORMAT_END
 95
        2
302
GRIDFORMAT
  1
GRIDFORMAT_BEGIN
 90
        0
 91
        1
 62
     0
 92
       -2
340
0
 93
        0
 40
0.045
309
GRIDFORMAT_END
 95
        4
302
GRIDFORMAT
  1
GRIDFORMAT_BEGIN
 90
        0
 91
        1
 62
     0
 92
       -2
340
0
 93
        0
 40
0.045
309
GRIDFORMAT_END
 95
        8
302
GRIDFORMAT
  1
GRIDFORMAT_BEGIN
 90
        0
 91
        1
 62
     0
 92
       -2
340
0
 93
        0
 40
0.045
309
GRIDFORMAT_END
 95
       16
302
GRIDFORMAT
  1
GRIDFORMAT_BEGIN
 90
        0
 91
        1
 62
     0
 92
       -2
340
0
 93
        0
 40
0.045
309
GRIDFORMAT_END
 95
       32
302
GRIDFORMAT
  1
GRIDFORMAT_BEGIN
 90
        0
 91
        1
 62
     0
 92
       -2
340
0
 93
        0
 40
0.045
309
GRIDFORMAT_END
309
TABLEFORMAT_END
  1
CELLSTYLE_BEGIN
 90
        3
 91
        2
300
_DATA
309
CELLSTYLE_END
  0
XRECORD
  5
2C77
102
{ACAD_REACTORS
330
2C76
102
}
330
2C76
100
AcDbXrecord
280
     1
102
RTVSPost2010Prop28
280
     1
102
RTVSPost2010PropOp28
 70
     1
102
RTVSPost2010Prop29
280
     1
102
RTVSPost2010PropOp29
 70
     1
102
RTVSPost2010Prop30
280
     0
102
RTVSPost2010PropOp30
 70
     1
102
RTVSPost2010Prop31
280
     0
102
RTVSPost2010PropOp31
 70
     1
102
RTVSPost2010Prop32
280
     0
102
RTVSPost2010PropOp32
 70
     1
102
RTVSPost2010Prop33
280
     0
102
RTVSPost2010PropOp33
 70
     1
102
RTVSPost2010Prop34
280
     0
102
RTVSPost2010PropOp34
 70
     1
102
RTVSPost2010Prop35
280
     0
102
RTVSPost2010PropOp35
 70
     1
102
RTVSPost2010Prop36
280
     0
102
RTVSPost2010PropOp36
 70
     1
102
RTVSPost2010Prop37
 90
       50
102
RTVSPost2010PropOp37
 70
     1
102
RTVSPost2010Prop38
140
0.0
102
RTVSPost2010PropOp38
 70
     1
102
RTVSPost2010Prop39
140
1.0
102
RTVSPost2010PropOp39
 70
     1
102
RTVSPost2010Prop40
 90
        0
102
RTVSPost2010PropOp40
 70
     1
102
RTVSPost2010Prop41ColorIndex
 90
       18
102
RTVSPost2010Prop41ColorRGB
 90
        0
102
RTVSPost2010PropOp41
 70
     1
102
RTVSPost2010Prop42
 90
       50
102
RTVSPost2010PropOp42
 70
     1
102
RTVSPost2010Prop43
 90
        3
102
RTVSPost2010PropOp43
 70
     1
102
RTVSPost2010Prop44ColorIndex
 90
        5
102
RTVSPost2010Prop44ColorRGB
 90
      255
102
RTVSPost2010PropOp44
 70
     1
102
RTVSPost2010Prop45
280
     0
102
RTVSPost2010PropOp45
 70
     1
102
RTVSPost2010Prop46
 90
       50
102
RTVSPost2010PropOp46
 70
     1
102
RTVSPost2010Prop47
 90
       50
102
RTVSPost2010PropOp47
 70
     1
102
RTVSPost2010Prop48
 90
       50
102
RTVSPost2010PropOp48
 70
     1
102
RTVSPost2010Prop49
280
     0
102
RTVSPost2010PropOp49
 70
     1
102
RTVSPost2010Prop50
 90
       50
102
RTVSPost2010PropOp50
 70
     1
102
RTVSPost2010Prop51ColorIndex
 90
      256
102
RTVSPost2010Prop51ColorRGB
 90
-16777216
102
RTVSPost2010PropOp51
 70
     0
102
RTVSPost2010Prop52
140
1.0
102
RTVSPost2010PropOp52
 70
     0
102
RTVSPost2010Prop53
 90
        2
102
RTVSPost2010PropOp53
 70
     1
102
RTVSPost2010Prop54
  1
strokes_ogs.tif
102
RTVSPost2010PropOp54
 70
     1
102
RTVSPost2010Prop55
280
     0
102
RTVSPost2010PropOp55
 70
     1
102
RTVSPost2010Prop56
140
1.0
102
RTVSPost2010PropOp56
 70
     1
102
RTVSPost2010Prop57
140
1.0
102
RTVSPost2010PropOp57
 70
     1
  0
XRECORD
  5
2C75
102
{ACAD_REACTORS
330
2C74
102
}
330
2C74
100
AcDbXrecord
280
     1
102
RTVSPost2010Prop28
280
     0
102
RTVSPost2010PropOp28
 70
     1
102
RTVSPost2010Prop29
280
     1
102
RTVSPost2010PropOp29
 70
     1
102
RTVSPost2010Prop30
280
     1
102
RTVSPost2010PropOp30
 70
     1
102
RTVSPost2010Prop31
280
     0
102
RTVSPost2010PropOp31
 70
     1
102
RTVSPost2010Prop32
280
     0
102
RTVSPost2010PropOp32
 70
     1
102
RTVSPost2010Prop33
280
     0
102
RTVSPost2010PropOp33
 70
     1
102
RTVSPost2010Prop34
280
     0
102
RTVSPost2010PropOp34
 70
     1
102
RTVSPost2010Prop35
280
     0
102
RTVSPost2010PropOp35
 70
     1
102
RTVSPost2010Prop36
280
     0
102
RTVSPost2010PropOp36
 70
     1
102
RTVSPost2010Prop37
 90
       50
102
RTVSPost2010PropOp37
 70
     1
102
RTVSPost2010Prop38
140
0.0
102
RTVSPost2010PropOp38
 70
     1
102
RTVSPost2010Prop39
140
1.0
102
RTVSPost2010PropOp39
 70
     1
102
RTVSPost2010Prop40
 90
        0
102
RTVSPost2010PropOp40
 70
     1
102
RTVSPost2010Prop41ColorIndex
 90
       18
102
RTVSPost2010Prop41ColorRGB
 90
        0
102
RTVSPost2010PropOp41
 70
     1
102
RTVSPost2010Prop42
 90
       50
102
RTVSPost2010PropOp42
 70
     1
102
RTVSPost2010Prop43
 90
        3
102
RTVSPost2010PropOp43
 70
     1
102
RTVSPost2010Prop44ColorIndex
 90
        5
102
RTVSPost2010Prop44ColorRGB
 90
      255
102
RTVSPost2010PropOp44
 70
     1
102
RTVSPost2010Prop45
280
     0
102
RTVSPost2010PropOp45
 70
     1
102
RTVSPost2010Prop46
 90
       50
102
RTVSPost2010PropOp46
 70
     1
102
RTVSPost2010Prop47
 90
       50
102
RTVSPost2010PropOp47
 70
     1
102
RTVSPost2010Prop48
 90
       50
102
RTVSPost2010PropOp48
 70
     1
102
RTVSPost2010Prop49
280
     0
102
RTVSPost2010PropOp49
 70
     1
102
RTVSPost2010Prop50
 90
       50
102
RTVSPost2010PropOp50
 70
     1
102
RTVSPost2010Prop51ColorIndex
 90
      256
102
RTVSPost2010Prop51ColorRGB
 90
-16777216
102
RTVSPost2010PropOp51
 70
     0
102
RTVSPost2010Prop52
140
1.0
102
RTVSPost2010PropOp52
 70
     0
102
RTVSPost2010Prop53
 90
        2
102
RTVSPost2010PropOp53
 70
     1
102
RTVSPost2010Prop54
  1
strokes_ogs.tif
102
RTVSPost2010PropOp54
 70
     1
102
RTVSPost2010Prop55
280
     0
102
RTVSPost2010PropOp55
 70
     1
102
RTVSPost2010Prop56
140
1.0
102
RTVSPost2010PropOp56
 70
     1
102
RTVSPost2010Prop57
140
1.0
102
RTVSPost2010PropOp57
 70
     1
  0
XRECORD
  5
2C83
102
{ACAD_REACTORS
330
2C82
102
}
330
2C82
100
AcDbXrecord
280
     1
102
RTVSPost2010Prop28
280
     0
102
RTVSPost2010PropOp28
 70
     1
102
RTVSPost2010Prop29
280
     1
102
RTVSPost2010PropOp29
 70
     1
102
RTVSPost2010Prop30
280
     1
102
RTVSPost2010PropOp30
 70
     1
102
RTVSPost2010Prop31
280
     0
102
RTVSPost2010PropOp31
 70
     1
102
RTVSPost2010Prop32
280
     0
102
RTVSPost2010PropOp32
 70
     1
102
RTVSPost2010Prop33
280
     0
102
RTVSPost2010PropOp33
 70
     1
102
RTVSPost2010Prop34
280
     0
102
RTVSPost2010PropOp34
 70
     1
102
RTVSPost2010Prop35
280
     0
102
RTVSPost2010PropOp35
 70
     1
102
RTVSPost2010Prop36
280
     0
102
RTVSPost2010PropOp36
 70
     1
102
RTVSPost2010Prop37
 90
       50
102
RTVSPost2010PropOp37
 70
     1
102
RTVSPost2010Prop38
140
0.0
102
RTVSPost2010PropOp38
 70
     1
102
RTVSPost2010Prop39
140
1.0
102
RTVSPost2010PropOp39
 70
     1
102
RTVSPost2010Prop40
 90
        0
102
RTVSPost2010PropOp40
 70
     1
102
RTVSPost2010Prop41ColorIndex
 90
       18
102
RTVSPost2010Prop41ColorRGB
 90
        0
102
RTVSPost2010PropOp41
 70
     1
102
RTVSPost2010Prop42
 90
       50
102
RTVSPost2010PropOp42
 70
     1
102
RTVSPost2010Prop43
 90
        3
102
RTVSPost2010PropOp43
 70
     1
102
RTVSPost2010Prop44ColorIndex
 90
        5
102
RTVSPost2010Prop44ColorRGB
 90
      255
102
RTVSPost2010PropOp44
 70
     1
102
RTVSPost2010Prop45
280
     0
102
RTVSPost2010PropOp45
 70
     1
102
RTVSPost2010Prop46
 90
       50
102
RTVSPost2010PropOp46
 70
     1
102
RTVSPost2010Prop47
 90
       50
102
RTVSPost2010PropOp47
 70
     1
102
RTVSPost2010Prop48
 90
       50
102
RTVSPost2010PropOp48
 70
     1
102
RTVSPost2010Prop49
280
     0
102
RTVSPost2010PropOp49
 70
     1
102
RTVSPost2010Prop50
 90
       50
102
RTVSPost2010PropOp50
 70
     1
102
RTVSPost2010Prop51ColorIndex
 90
      256
102
RTVSPost2010Prop51ColorRGB
 90
-16777216
102
RTVSPost2010PropOp51
 70
     0
102
RTVSPost2010Prop52
140
1.0
102
RTVSPost2010PropOp52
 70
     0
102
RTVSPost2010Prop53
 90
        2
102
RTVSPost2010PropOp53
 70
     1
102
RTVSPost2010Prop54
  1
strokes_ogs.tif
102
RTVSPost2010PropOp54
 70
     1
102
RTVSPost2010Prop55
280
     0
102
RTVSPost2010PropOp55
 70
     1
102
RTVSPost2010Prop56
140
1.0
102
RTVSPost2010PropOp56
 70
     1
102
RTVSPost2010Prop57
140
1.0
102
RTVSPost2010PropOp57
 70
     1
  0
XRECORD
  5
2C8B
102
{ACAD_REACTORS
330
2C8A
102
}
330
2C8A
100
AcDbXrecord
280
     1
102
RTVSPost2010Prop28
280
     0
102
RTVSPost2010PropOp28
 70
     1
102
RTVSPost2010Prop29
280
     1
102
RTVSPost2010PropOp29
 70
     1
102
RTVSPost2010Prop30
280
     1
102
RTVSPost2010PropOp30
 70
     1
102
RTVSPost2010Prop31
280
     0
102
RTVSPost2010PropOp31
 70
     1
102
RTVSPost2010Prop32
280
     0
102
RTVSPost2010PropOp32
 70
     1
102
RTVSPost2010Prop33
280
     0
102
RTVSPost2010PropOp33
 70
     1
102
RTVSPost2010Prop34
280
     0
102
RTVSPost2010PropOp34
 70
     1
102
RTVSPost2010Prop35
280
     0
102
RTVSPost2010PropOp35
 70
     1
102
RTVSPost2010Prop36
280
     0
102
RTVSPost2010PropOp36
 70
     1
102
RTVSPost2010Prop37
 90
       50
102
RTVSPost2010PropOp37
 70
     1
102
RTVSPost2010Prop38
140
0.0
102
RTVSPost2010PropOp38
 70
     1
102
RTVSPost2010Prop39
140
1.0
102
RTVSPost2010PropOp39
 70
     1
102
RTVSPost2010Prop40
 90
        0
102
RTVSPost2010PropOp40
 70
     1
102
RTVSPost2010Prop41ColorIndex
 90
       18
102
RTVSPost2010Prop41ColorRGB
 90
        0
102
RTVSPost2010PropOp41
 70
     1
102
RTVSPost2010Prop42
 90
       50
102
RTVSPost2010PropOp42
 70
     1
102
RTVSPost2010Prop43
 90
        3
102
RTVSPost2010PropOp43
 70
     1
102
RTVSPost2010Prop44ColorIndex
 90
        5
102
RTVSPost2010Prop44ColorRGB
 90
      255
102
RTVSPost2010PropOp44
 70
     1
102
RTVSPost2010Prop45
280
     0
102
RTVSPost2010PropOp45
 70
     1
102
RTVSPost2010Prop46
 90
       50
102
RTVSPost2010PropOp46
 70
     1
102
RTVSPost2010Prop47
 90
       50
102
RTVSPost2010PropOp47
 70
     1
102
RTVSPost2010Prop48
 90
       50
102
RTVSPost2010PropOp48
 70
     1
102
RTVSPost2010Prop49
280
     0
102
RTVSPost2010PropOp49
 70
     1
102
RTVSPost2010Prop50
 90
       50
102
RTVSPost2010PropOp50
 70
     1
102
RTVSPost2010Prop51ColorIndex
 90
      256
102
RTVSPost2010Prop51ColorRGB
 90
-16777216
102
RTVSPost2010PropOp51
 70
     0
102
RTVSPost2010Prop52
140
1.0
102
RTVSPost2010PropOp52
 70
     0
102
RTVSPost2010Prop53
 90
        2
102
RTVSPost2010PropOp53
 70
     1
102
RTVSPost2010Prop54
  1
strokes_ogs.tif
102
RTVSPost2010PropOp54
 70
     1
102
RTVSPost2010Prop55
280
     0
102
RTVSPost2010PropOp55
 70
     1
102
RTVSPost2010Prop56
140
1.0
102
RTVSPost2010PropOp56
 70
     1
102
RTVSPost2010Prop57
140
1.0
102
RTVSPost2010PropOp57
 70
     1
  0
XRECORD
  5
2C7D
102
{ACAD_REACTORS
330
2C7C
102
}
330
2C7C
100
AcDbXrecord
280
     1
102
RTVSPost2010Prop28
280
     0
102
RTVSPost2010PropOp28
 70
     1
102
RTVSPost2010Prop29
280
     1
102
RTVSPost2010PropOp29
 70
     1
102
RTVSPost2010Prop30
280
     1
102
RTVSPost2010PropOp30
 70
     1
102
RTVSPost2010Prop31
280
     0
102
RTVSPost2010PropOp31
 70
     1
102
RTVSPost2010Prop32
280
     0
102
RTVSPost2010PropOp32
 70
     1
102
RTVSPost2010Prop33
280
     0
102
RTVSPost2010PropOp33
 70
     1
102
RTVSPost2010Prop34
280
     0
102
RTVSPost2010PropOp34
 70
     1
102
RTVSPost2010Prop35
280
     0
102
RTVSPost2010PropOp35
 70
     1
102
RTVSPost2010Prop36
280
     0
102
RTVSPost2010PropOp36
 70
     1
102
RTVSPost2010Prop37
 90
       50
102
RTVSPost2010PropOp37
 70
     1
102
RTVSPost2010Prop38
140
0.0
102
RTVSPost2010PropOp38
 70
     1
102
RTVSPost2010Prop39
140
1.0
102
RTVSPost2010PropOp39
 70
     1
102
RTVSPost2010Prop40
 90
        0
102
RTVSPost2010PropOp40
 70
     1
102
RTVSPost2010Prop41ColorIndex
 90
       18
102
RTVSPost2010Prop41ColorRGB
 90
        0
102
RTVSPost2010PropOp41
 70
     1
102
RTVSPost2010Prop42
 90
       50
102
RTVSPost2010PropOp42
 70
     1
102
RTVSPost2010Prop43
 90
        3
102
RTVSPost2010PropOp43
 70
     1
102
RTVSPost2010Prop44ColorIndex
 90
        5
102
RTVSPost2010Prop44ColorRGB
 90
      255
102
RTVSPost2010PropOp44
 70
     1
102
RTVSPost2010Prop45
280
     0
102
RTVSPost2010PropOp45
 70
     1
102
RTVSPost2010Prop46
 90
       50
102
RTVSPost2010PropOp46
 70
     1
102
RTVSPost2010Prop47
 90
       50
102
RTVSPost2010PropOp47
 70
     1
102
RTVSPost2010Prop48
 90
       50
102
RTVSPost2010PropOp48
 70
     1
102
RTVSPost2010Prop49
280
     0
102
RTVSPost2010PropOp49
 70
     1
102
RTVSPost2010Prop50
 90
       50
102
RTVSPost2010PropOp50
 70
     1
102
RTVSPost2010Prop51ColorIndex
 90
      256
102
RTVSPost2010Prop51ColorRGB
 90
-16777216
102
RTVSPost2010PropOp51
 70
     0
102
RTVSPost2010Prop52
140
1.0
102
RTVSPost2010PropOp52
 70
     0
102
RTVSPost2010Prop53
 90
        2
102
RTVSPost2010PropOp53
 70
     1
102
RTVSPost2010Prop54
  1
strokes_ogs.tif
102
RTVSPost2010PropOp54
 70
     1
102
RTVSPost2010Prop55
280
     0
102
RTVSPost2010PropOp55
 70
     1
102
RTVSPost2010Prop56
140
1.0
102
RTVSPost2010PropOp56
 70
     1
102
RTVSPost2010Prop57
140
1.0
102
RTVSPost2010PropOp57
 70
     1
  0
XRECORD
  5
2C81
102
{ACAD_REACTORS
330
2C80
102
}
330
2C80
100
AcDbXrecord
280
     1
102
RTVSPost2010Prop28
280
     0
102
RTVSPost2010PropOp28
 70
     1
102
RTVSPost2010Prop29
280
     1
102
RTVSPost2010PropOp29
 70
     1
102
RTVSPost2010Prop30
280
     1
102
RTVSPost2010PropOp30
 70
     1
102
RTVSPost2010Prop31
280
     0
102
RTVSPost2010PropOp31
 70
     1
102
RTVSPost2010Prop32
280
     0
102
RTVSPost2010PropOp32
 70
     1
102
RTVSPost2010Prop33
280
     0
102
RTVSPost2010PropOp33
 70
     1
102
RTVSPost2010Prop34
280
     0
102
RTVSPost2010PropOp34
 70
     1
102
RTVSPost2010Prop35
280
     0
102
RTVSPost2010PropOp35
 70
     1
102
RTVSPost2010Prop36
280
     0
102
RTVSPost2010PropOp36
 70
     1
102
RTVSPost2010Prop37
 90
       50
102
RTVSPost2010PropOp37
 70
     1
102
RTVSPost2010Prop38
140
0.0
102
RTVSPost2010PropOp38
 70
     1
102
RTVSPost2010Prop39
140
1.0
102
RTVSPost2010PropOp39
 70
     1
102
RTVSPost2010Prop40
 90
        0
102
RTVSPost2010PropOp40
 70
     1
102
RTVSPost2010Prop41ColorIndex
 90
       18
102
RTVSPost2010Prop41ColorRGB
 90
        0
102
RTVSPost2010PropOp41
 70
     1
102
RTVSPost2010Prop42
 90
       50
102
RTVSPost2010PropOp42
 70
     1
102
RTVSPost2010Prop43
 90
        3
102
RTVSPost2010PropOp43
 70
     1
102
RTVSPost2010Prop44ColorIndex
 90
        5
102
RTVSPost2010Prop44ColorRGB
 90
      255
102
RTVSPost2010PropOp44
 70
     1
102
RTVSPost2010Prop45
280
     0
102
RTVSPost2010PropOp45
 70
     1
102
RTVSPost2010Prop46
 90
       50
102
RTVSPost2010PropOp46
 70
     1
102
RTVSPost2010Prop47
 90
       50
102
RTVSPost2010PropOp47
 70
     1
102
RTVSPost2010Prop48
 90
       50
102
RTVSPost2010PropOp48
 70
     1
102
RTVSPost2010Prop49
280
     0
102
RTVSPost2010PropOp49
 70
     1
102
RTVSPost2010Prop50
 90
       50
102
RTVSPost2010PropOp50
 70
     1
102
RTVSPost2010Prop51ColorIndex
 90
      256
102
RTVSPost2010Prop51ColorRGB
 90
-16777216
102
RTVSPost2010PropOp51
 70
     0
102
RTVSPost2010Prop52
140
1.0
102
RTVSPost2010PropOp52
 70
     0
102
RTVSPost2010Prop53
 90
        2
102
RTVSPost2010PropOp53
 70
     1
102
RTVSPost2010Prop54
  1
strokes_ogs.tif
102
RTVSPost2010PropOp54
 70
     1
102
RTVSPost2010Prop55
280
     0
102
RTVSPost2010PropOp55
 70
     1
102
RTVSPost2010Prop56
140
1.0
102
RTVSPost2010PropOp56
 70
     1
102
RTVSPost2010Prop57
140
1.0
102
RTVSPost2010PropOp57
 70
     1
  0
XRECORD
  5
2C91
102
{ACAD_REACTORS
330
2C90
102
}
330
2C90
100
AcDbXrecord
280
     1
102
RTVSPost2010Prop28
280
     0
102
RTVSPost2010PropOp28
 70
     1
102
RTVSPost2010Prop29
280
     1
102
RTVSPost2010PropOp29
 70
     1
102
RTVSPost2010Prop30
280
     1
102
RTVSPost2010PropOp30
 70
     1
102
RTVSPost2010Prop31
280
     0
102
RTVSPost2010PropOp31
 70
     1
102
RTVSPost2010Prop32
280
     0
102
RTVSPost2010PropOp32
 70
     1
102
RTVSPost2010Prop33
280
     0
102
RTVSPost2010PropOp33
 70
     1
102
RTVSPost2010Prop34
280
     0
102
RTVSPost2010PropOp34
 70
     1
102
RTVSPost2010Prop35
280
     0
102
RTVSPost2010PropOp35
 70
     1
102
RTVSPost2010Prop36
280
     0
102
RTVSPost2010PropOp36
 70
     1
102
RTVSPost2010Prop37
 90
       50
102
RTVSPost2010PropOp37
 70
     1
102
RTVSPost2010Prop38
140
0.0
102
RTVSPost2010PropOp38
 70
     1
102
RTVSPost2010Prop39
140
1.0
102
RTVSPost2010PropOp39
 70
     1
102
RTVSPost2010Prop40
 90
        0
102
RTVSPost2010PropOp40
 70
     1
102
RTVSPost2010Prop41ColorIndex
 90
       18
102
RTVSPost2010Prop41ColorRGB
 90
        0
102
RTVSPost2010PropOp41
 70
     1
102
RTVSPost2010Prop42
 90
       50
102
RTVSPost2010PropOp42
 70
     1
102
RTVSPost2010Prop43
 90
        3
102
RTVSPost2010PropOp43
 70
     1
102
RTVSPost2010Prop44ColorIndex
 90
        5
102
RTVSPost2010Prop44ColorRGB
 90
      255
102
RTVSPost2010PropOp44
 70
     1
102
RTVSPost2010Prop45
280
     0
102
RTVSPost2010PropOp45
 70
     1
102
RTVSPost2010Prop46
 90
       50
102
RTVSPost2010PropOp46
 70
     1
102
RTVSPost2010Prop47
 90
       50
102
RTVSPost2010PropOp47
 70
     1
102
RTVSPost2010Prop48
 90
       50
102
RTVSPost2010PropOp48
 70
     1
102
RTVSPost2010Prop49
280
     0
102
RTVSPost2010PropOp49
 70
     1
102
RTVSPost2010Prop50
 90
       50
102
RTVSPost2010PropOp50
 70
     1
102
RTVSPost2010Prop51ColorIndex
 90
      256
102
RTVSPost2010Prop51ColorRGB
 90
-16777216
102
RTVSPost2010PropOp51
 70
     0
102
RTVSPost2010Prop52
140
1.0
102
RTVSPost2010PropOp52
 70
     0
102
RTVSPost2010Prop53
 90
        2
102
RTVSPost2010PropOp53
 70
     1
102
RTVSPost2010Prop54
  1
strokes_ogs.tif
102
RTVSPost2010PropOp54
 70
     1
102
RTVSPost2010Prop55
280
     0
102
RTVSPost2010PropOp55
 70
     1
102
RTVSPost2010Prop56
140
1.0
102
RTVSPost2010PropOp56
 70
     1
102
RTVSPost2010Prop57
140
1.0
102
RTVSPost2010PropOp57
 70
     1
  0
XRECORD
  5
2C89
102
{ACAD_REACTORS
330
2C88
102
}
330
2C88
100
AcDbXrecord
280
     1
102
RTVSPost2010Prop28
280
     0
102
RTVSPost2010PropOp28
 70
     1
102
RTVSPost2010Prop29
280
     1
102
RTVSPost2010PropOp29
 70
     1
102
RTVSPost2010Prop30
280
     1
102
RTVSPost2010PropOp30
 70
     1
102
RTVSPost2010Prop31
280
     0
102
RTVSPost2010PropOp31
 70
     1
102
RTVSPost2010Prop32
280
     0
102
RTVSPost2010PropOp32
 70
     1
102
RTVSPost2010Prop33
280
     0
102
RTVSPost2010PropOp33
 70
     1
102
RTVSPost2010Prop34
280
     0
102
RTVSPost2010PropOp34
 70
     1
102
RTVSPost2010Prop35
280
     0
102
RTVSPost2010PropOp35
 70
     1
102
RTVSPost2010Prop36
280
     0
102
RTVSPost2010PropOp36
 70
     1
102
RTVSPost2010Prop37
 90
       50
102
RTVSPost2010PropOp37
 70
     1
102
RTVSPost2010Prop38
140
0.0
102
RTVSPost2010PropOp38
 70
     1
102
RTVSPost2010Prop39
140
1.0
102
RTVSPost2010PropOp39
 70
     1
102
RTVSPost2010Prop40
 90
        0
102
RTVSPost2010PropOp40
 70
     1
102
RTVSPost2010Prop41ColorIndex
 90
       18
102
RTVSPost2010Prop41ColorRGB
 90
        0
102
RTVSPost2010PropOp41
 70
     1
102
RTVSPost2010Prop42
 90
       50
102
RTVSPost2010PropOp42
 70
     1
102
RTVSPost2010Prop43
 90
        3
102
RTVSPost2010PropOp43
 70
     1
102
RTVSPost2010Prop44ColorIndex
 90
        5
102
RTVSPost2010Prop44ColorRGB
 90
      255
102
RTVSPost2010PropOp44
 70
     1
102
RTVSPost2010Prop45
280
     0
102
RTVSPost2010PropOp45
 70
     1
102
RTVSPost2010Prop46
 90
       50
102
RTVSPost2010PropOp46
 70
     1
102
RTVSPost2010Prop47
 90
       50
102
RTVSPost2010PropOp47
 70
     1
102
RTVSPost2010Prop48
 90
       50
102
RTVSPost2010PropOp48
 70
     1
102
RTVSPost2010Prop49
280
     0
102
RTVSPost2010PropOp49
 70
     1
102
RTVSPost2010Prop50
 90
       50
102
RTVSPost2010PropOp50
 70
     1
102
RTVSPost2010Prop51ColorIndex
 90
      256
102
RTVSPost2010Prop51ColorRGB
 90
-16777216
102
RTVSPost2010PropOp51
 70
     0
102
RTVSPost2010Prop52
140
1.0
102
RTVSPost2010PropOp52
 70
     0
102
RTVSPost2010Prop53
 90
        2
102
RTVSPost2010PropOp53
 70
     1
102
RTVSPost2010Prop54
  1
strokes_ogs.tif
102
RTVSPost2010PropOp54
 70
     1
102
RTVSPost2010Prop55
280
     0
102
RTVSPost2010PropOp55
 70
     1
102
RTVSPost2010Prop56
140
1.0
102
RTVSPost2010PropOp56
 70
     1
102
RTVSPost2010Prop57
140
1.0
102
RTVSPost2010PropOp57
 70
     1
  0
XRECORD
  5
2C6D
102
{ACAD_REACTORS
330
2C6C
102
}
330
2C6C
100
AcDbXrecord
280
     1
102
RTVSPost2010Prop28
280
     0
102
RTVSPost2010PropOp28
 70
     1
102
RTVSPost2010Prop29
280
     1
102
RTVSPost2010PropOp29
 70
     1
102
RTVSPost2010Prop30
280
     1
102
RTVSPost2010PropOp30
 70
     1
102
RTVSPost2010Prop31
280
     0
102
RTVSPost2010PropOp31
 70
     1
102
RTVSPost2010Prop32
280
     0
102
RTVSPost2010PropOp32
 70
     1
102
RTVSPost2010Prop33
280
     0
102
RTVSPost2010PropOp33
 70
     1
102
RTVSPost2010Prop34
280
     0
102
RTVSPost2010PropOp34
 70
     1
102
RTVSPost2010Prop35
280
     0
102
RTVSPost2010PropOp35
 70
     1
102
RTVSPost2010Prop36
280
     0
102
RTVSPost2010PropOp36
 70
     1
102
RTVSPost2010Prop37
 90
       50
102
RTVSPost2010PropOp37
 70
     1
102
RTVSPost2010Prop38
140
0.0
102
RTVSPost2010PropOp38
 70
     1
102
RTVSPost2010Prop39
140
1.0
102
RTVSPost2010PropOp39
 70
     1
102
RTVSPost2010Prop40
 90
        0
102
RTVSPost2010PropOp40
 70
     1
102
RTVSPost2010Prop41ColorIndex
 90
       18
102
RTVSPost2010Prop41ColorRGB
 90
        0
102
RTVSPost2010PropOp41
 70
     1
102
RTVSPost2010Prop42
 90
       50
102
RTVSPost2010PropOp42
 70
     1
102
RTVSPost2010Prop43
 90
        3
102
RTVSPost2010PropOp43
 70
     1
102
RTVSPost2010Prop44ColorIndex
 90
        5
102
RTVSPost2010Prop44ColorRGB
 90
      255
102
RTVSPost2010PropOp44
 70
     1
102
RTVSPost2010Prop45
280
     0
102
RTVSPost2010PropOp45
 70
     1
102
RTVSPost2010Prop46
 90
       50
102
RTVSPost2010PropOp46
 70
     1
102
RTVSPost2010Prop47
 90
       50
102
RTVSPost2010PropOp47
 70
     1
102
RTVSPost2010Prop48
 90
       50
102
RTVSPost2010PropOp48
 70
     1
102
RTVSPost2010Prop49
280
     0
102
RTVSPost2010PropOp49
 70
     1
102
RTVSPost2010Prop50
 90
       50
102
RTVSPost2010PropOp50
 70
     1
102
RTVSPost2010Prop51ColorIndex
 90
      256
102
RTVSPost2010Prop51ColorRGB
 90
-16777216
102
RTVSPost2010PropOp51
 70
     0
102
RTVSPost2010Prop52
140
1.0
102
RTVSPost2010PropOp52
 70
     0
102
RTVSPost2010Prop53
 90
        2
102
RTVSPost2010PropOp53
 70
     1
102
RTVSPost2010Prop54
  1
strokes_ogs.tif
102
RTVSPost2010PropOp54
 70
     1
102
RTVSPost2010Prop55
280
     0
102
RTVSPost2010PropOp55
 70
     1
102
RTVSPost2010Prop56
140
1.0
102
RTVSPost2010PropOp56
 70
     1
102
RTVSPost2010Prop57
140
1.0
102
RTVSPost2010PropOp57
 70
     1
  0
XRECORD
  5
2C6F
102
{ACAD_REACTORS
330
2C6E
102
}
330
2C6E
100
AcDbXrecord
280
     1
102
RTVSPost2010Prop28
280
     0
102
RTVSPost2010PropOp28
 70
     1
102
RTVSPost2010Prop29
280
     1
102
RTVSPost2010PropOp29
 70
     1
102
RTVSPost2010Prop30
280
     1
102
RTVSPost2010PropOp30
 70
     1
102
RTVSPost2010Prop31
280
     0
102
RTVSPost2010PropOp31
 70
     1
102
RTVSPost2010Prop32
280
     0
102
RTVSPost2010PropOp32
 70
     1
102
RTVSPost2010Prop33
280
     0
102
RTVSPost2010PropOp33
 70
     1
102
RTVSPost2010Prop34
280
     0
102
RTVSPost2010PropOp34
 70
     1
102
RTVSPost2010Prop35
280
     0
102
RTVSPost2010PropOp35
 70
     1
102
RTVSPost2010Prop36
280
     0
102
RTVSPost2010PropOp36
 70
     1
102
RTVSPost2010Prop37
 90
       50
102
RTVSPost2010PropOp37
 70
     1
102
RTVSPost2010Prop38
140
0.0
102
RTVSPost2010PropOp38
 70
     1
102
RTVSPost2010Prop39
140
1.0
102
RTVSPost2010PropOp39
 70
     1
102
RTVSPost2010Prop40
 90
        0
102
RTVSPost2010PropOp40
 70
     1
102
RTVSPost2010Prop41ColorIndex
 90
       18
102
RTVSPost2010Prop41ColorRGB
 90
        0
102
RTVSPost2010PropOp41
 70
     1
102
RTVSPost2010Prop42
 90
       50
102
RTVSPost2010PropOp42
 70
     1
102
RTVSPost2010Prop43
 90
        3
102
RTVSPost2010PropOp43
 70
     1
102
RTVSPost2010Prop44ColorIndex
 90
        5
102
RTVSPost2010Prop44ColorRGB
 90
      255
102
RTVSPost2010PropOp44
 70
     1
102
RTVSPost2010Prop45
280
     0
102
RTVSPost2010PropOp45
 70
     1
102
RTVSPost2010Prop46
 90
       50
102
RTVSPost2010PropOp46
 70
     1
102
RTVSPost2010Prop47
 90
       50
102
RTVSPost2010PropOp47
 70
     1
102
RTVSPost2010Prop48
 90
       50
102
RTVSPost2010PropOp48
 70
     1
102
RTVSPost2010Prop49
280
     0
102
RTVSPost2010PropOp49
 70
     1
102
RTVSPost2010Prop50
 90
       50
102
RTVSPost2010PropOp50
 70
     1
102
RTVSPost2010Prop51ColorIndex
 90
      256
102
RTVSPost2010Prop51ColorRGB
 90
-16777216
102
RTVSPost2010PropOp51
 70
     0
102
RTVSPost2010Prop52
140
1.0
102
RTVSPost2010PropOp52
 70
     0
102
RTVSPost2010Prop53
 90
        2
102
RTVSPost2010PropOp53
 70
     1
102
RTVSPost2010Prop54
  1
strokes_ogs.tif
102
RTVSPost2010PropOp54
 70
     1
102
RTVSPost2010Prop55
280
     0
102
RTVSPost2010PropOp55
 70
     1
102
RTVSPost2010Prop56
140
1.0
102
RTVSPost2010PropOp56
 70
     1
102
RTVSPost2010Prop57
140
1.0
102
RTVSPost2010PropOp57
 70
     1
  0
XRECORD
  5
2C71
102
{ACAD_REACTORS
330
2C70
102
}
330
2C70
100
AcDbXrecord
280
     1
102
RTVSPost2010Prop28
280
     0
102
RTVSPost2010PropOp28
 70
     1
102
RTVSPost2010Prop29
280
     1
102
RTVSPost2010PropOp29
 70
     1
102
RTVSPost2010Prop30
280
     1
102
RTVSPost2010PropOp30
 70
     1
102
RTVSPost2010Prop31
280
     0
102
RTVSPost2010PropOp31
 70
     1
102
RTVSPost2010Prop32
280
     0
102
RTVSPost2010PropOp32
 70
     1
102
RTVSPost2010Prop33
280
     0
102
RTVSPost2010PropOp33
 70
     1
102
RTVSPost2010Prop34
280
     0
102
RTVSPost2010PropOp34
 70
     1
102
RTVSPost2010Prop35
280
     0
102
RTVSPost2010PropOp35
 70
     1
102
RTVSPost2010Prop36
280
     0
102
RTVSPost2010PropOp36
 70
     1
102
RTVSPost2010Prop37
 90
       50
102
RTVSPost2010PropOp37
 70
     1
102
RTVSPost2010Prop38
140
0.0
102
RTVSPost2010PropOp38
 70
     1
102
RTVSPost2010Prop39
140
1.0
102
RTVSPost2010PropOp39
 70
     1
102
RTVSPost2010Prop40
 90
        0
102
RTVSPost2010PropOp40
 70
     1
102
RTVSPost2010Prop41ColorIndex
 90
       18
102
RTVSPost2010Prop41ColorRGB
 90
        0
102
RTVSPost2010PropOp41
 70
     1
102
RTVSPost2010Prop42
 90
       50
102
RTVSPost2010PropOp42
 70
     1
102
RTVSPost2010Prop43
 90
        3
102
RTVSPost2010PropOp43
 70
     1
102
RTVSPost2010Prop44ColorIndex
 90
        5
102
RTVSPost2010Prop44ColorRGB
 90
      255
102
RTVSPost2010PropOp44
 70
     1
102
RTVSPost2010Prop45
280
     0
102
RTVSPost2010PropOp45
 70
     1
102
RTVSPost2010Prop46
 90
       50
102
RTVSPost2010PropOp46
 70
     1
102
RTVSPost2010Prop47
 90
       50
102
RTVSPost2010PropOp47
 70
     1
102
RTVSPost2010Prop48
 90
       50
102
RTVSPost2010PropOp48
 70
     1
102
RTVSPost2010Prop49
280
     0
102
RTVSPost2010PropOp49
 70
     1
102
RTVSPost2010Prop50
 90
       50
102
RTVSPost2010PropOp50
 70
     1
102
RTVSPost2010Prop51ColorIndex
 90
      256
102
RTVSPost2010Prop51ColorRGB
 90
-16777216
102
RTVSPost2010PropOp51
 70
     0
102
RTVSPost2010Prop52
140
1.0
102
RTVSPost2010PropOp52
 70
     0
102
RTVSPost2010Prop53
 90
        2
102
RTVSPost2010PropOp53
 70
     1
102
RTVSPost2010Prop54
  1
strokes_ogs.tif
102
RTVSPost2010PropOp54
 70
     1
102
RTVSPost2010Prop55
280
     0
102
RTVSPost2010PropOp55
 70
     1
102
RTVSPost2010Prop56
140
1.0
102
RTVSPost2010PropOp56
 70
     1
102
RTVSPost2010Prop57
140
1.0
102
RTVSPost2010PropOp57
 70
     1
  0
XRECORD
  5
2C73
102
{ACAD_REACTORS
330
2C72
102
}
330
2C72
100
AcDbXrecord
280
     1
102
RTVSPost2010Prop28
280
     0
102
RTVSPost2010PropOp28
 70
     1
102
RTVSPost2010Prop29
280
     1
102
RTVSPost2010PropOp29
 70
     1
102
RTVSPost2010Prop30
280
     1
102
RTVSPost2010PropOp30
 70
     1
102
RTVSPost2010Prop31
280
     0
102
RTVSPost2010PropOp31
 70
     1
102
RTVSPost2010Prop32
280
     0
102
RTVSPost2010PropOp32
 70
     1
102
RTVSPost2010Prop33
280
     0
102
RTVSPost2010PropOp33
 70
     1
102
RTVSPost2010Prop34
280
     0
102
RTVSPost2010PropOp34
 70
     1
102
RTVSPost2010Prop35
280
     0
102
RTVSPost2010PropOp35
 70
     1
102
RTVSPost2010Prop36
280
     0
102
RTVSPost2010PropOp36
 70
     1
102
RTVSPost2010Prop37
 90
       50
102
RTVSPost2010PropOp37
 70
     1
102
RTVSPost2010Prop38
140
0.0
102
RTVSPost2010PropOp38
 70
     1
102
RTVSPost2010Prop39
140
1.0
102
RTVSPost2010PropOp39
 70
     1
102
RTVSPost2010Prop40
 90
        0
102
RTVSPost2010PropOp40
 70
     1
102
RTVSPost2010Prop41ColorIndex
 90
       18
102
RTVSPost2010Prop41ColorRGB
 90
        0
102
RTVSPost2010PropOp41
 70
     1
102
RTVSPost2010Prop42
 90
       50
102
RTVSPost2010PropOp42
 70
     1
102
RTVSPost2010Prop43
 90
        3
102
RTVSPost2010PropOp43
 70
     1
102
RTVSPost2010Prop44ColorIndex
 90
        5
102
RTVSPost2010Prop44ColorRGB
 90
      255
102
RTVSPost2010PropOp44
 70
     1
102
RTVSPost2010Prop45
280
     0
102
RTVSPost2010PropOp45
 70
     1
102
RTVSPost2010Prop46
 90
       50
102
RTVSPost2010PropOp46
 70
     1
102
RTVSPost2010Prop47
 90
       50
102
RTVSPost2010PropOp47
 70
     1
102
RTVSPost2010Prop48
 90
       50
102
RTVSPost2010PropOp48
 70
     1
102
RTVSPost2010Prop49
280
     0
102
RTVSPost2010PropOp49
 70
     1
102
RTVSPost2010Prop50
 90
       50
102
RTVSPost2010PropOp50
 70
     1
102
RTVSPost2010Prop51ColorIndex
 90
      256
102
RTVSPost2010Prop51ColorRGB
 90
-16777216
102
RTVSPost2010PropOp51
 70
     0
102
RTVSPost2010Prop52
140
1.0
102
RTVSPost2010PropOp52
 70
     0
102
RTVSPost2010Prop53
 90
        2
102
RTVSPost2010PropOp53
 70
     1
102
RTVSPost2010Prop54
  1
strokes_ogs.tif
102
RTVSPost2010PropOp54
 70
     1
102
RTVSPost2010Prop55
280
     0
102
RTVSPost2010PropOp55
 70
     1
102
RTVSPost2010Prop56
140
1.0
102
RTVSPost2010PropOp56
 70
     1
102
RTVSPost2010Prop57
140
1.0
102
RTVSPost2010PropOp57
 70
     1
  0
XRECORD
  5
2C7B
102
{ACAD_REACTORS
330
2C7A
102
}
330
2C7A
100
AcDbXrecord
280
     1
102
RTVSPost2010Prop28
280
     0
102
RTVSPost2010PropOp28
 70
     1
102
RTVSPost2010Prop29
280
     1
102
RTVSPost2010PropOp29
 70
     1
102
RTVSPost2010Prop30
280
     1
102
RTVSPost2010PropOp30
 70
     1
102
RTVSPost2010Prop31
280
     0
102
RTVSPost2010PropOp31
 70
     1
102
RTVSPost2010Prop32
280
     0
102
RTVSPost2010PropOp32
 70
     1
102
RTVSPost2010Prop33
280
     0
102
RTVSPost2010PropOp33
 70
     1
102
RTVSPost2010Prop34
280
     0
102
RTVSPost2010PropOp34
 70
     1
102
RTVSPost2010Prop35
280
     0
102
RTVSPost2010PropOp35
 70
     1
102
RTVSPost2010Prop36
280
     0
102
RTVSPost2010PropOp36
 70
     1
102
RTVSPost2010Prop37
 90
       50
102
RTVSPost2010PropOp37
 70
     1
102
RTVSPost2010Prop38
140
0.0
102
RTVSPost2010PropOp38
 70
     1
102
RTVSPost2010Prop39
140
1.0
102
RTVSPost2010PropOp39
 70
     1
102
RTVSPost2010Prop40
 90
        0
102
RTVSPost2010PropOp40
 70
     1
102
RTVSPost2010Prop41ColorIndex
 90
       18
102
RTVSPost2010Prop41ColorRGB
 90
        0
102
RTVSPost2010PropOp41
 70
     1
102
RTVSPost2010Prop42
 90
       50
102
RTVSPost2010PropOp42
 70
     1
102
RTVSPost2010Prop43
 90
        3
102
RTVSPost2010PropOp43
 70
     1
102
RTVSPost2010Prop44ColorIndex
 90
        5
102
RTVSPost2010Prop44ColorRGB
 90
      255
102
RTVSPost2010PropOp44
 70
     1
102
RTVSPost2010Prop45
280
     0
102
RTVSPost2010PropOp45
 70
     1
102
RTVSPost2010Prop46
 90
       50
102
RTVSPost2010PropOp46
 70
     1
102
RTVSPost2010Prop47
 90
       50
102
RTVSPost2010PropOp47
 70
     1
102
RTVSPost2010Prop48
 90
       50
102
RTVSPost2010PropOp48
 70
     1
102
RTVSPost2010Prop49
280
     0
102
RTVSPost2010PropOp49
 70
     1
102
RTVSPost2010Prop50
 90
       50
102
RTVSPost2010PropOp50
 70
     1
102
RTVSPost2010Prop51ColorIndex
 90
      256
102
RTVSPost2010Prop51ColorRGB
 90
-16777216
102
RTVSPost2010PropOp51
 70
     0
102
RTVSPost2010Prop52
140
1.0
102
RTVSPost2010PropOp52
 70
     0
102
RTVSPost2010Prop53
 90
        2
102
RTVSPost2010PropOp53
 70
     1
102
RTVSPost2010Prop54
  1
strokes_ogs.tif
102
RTVSPost2010PropOp54
 70
     1
102
RTVSPost2010Prop55
280
     0
102
RTVSPost2010PropOp55
 70
     1
102
RTVSPost2010Prop56
140
1.0
102
RTVSPost2010PropOp56
 70
     1
102
RTVSPost2010Prop57
140
1.0
102
RTVSPost2010PropOp57
 70
     1
  0
XRECORD
  5
2C8D
102
{ACAD_REACTORS
330
2C8C
102
}
330
2C8C
100
AcDbXrecord
280
     1
102
RTVSPost2010Prop28
280
     0
102
RTVSPost2010PropOp28
 70
     1
102
RTVSPost2010Prop29
280
     1
102
RTVSPost2010PropOp29
 70
     1
102
RTVSPost2010Prop30
280
     1
102
RTVSPost2010PropOp30
 70
     1
102
RTVSPost2010Prop31
280
     0
102
RTVSPost2010PropOp31
 70
     1
102
RTVSPost2010Prop32
280
     0
102
RTVSPost2010PropOp32
 70
     1
102
RTVSPost2010Prop33
280
     0
102
RTVSPost2010PropOp33
 70
     1
102
RTVSPost2010Prop34
280
     0
102
RTVSPost2010PropOp34
 70
     1
102
RTVSPost2010Prop35
280
     0
102
RTVSPost2010PropOp35
 70
     1
102
RTVSPost2010Prop36
280
     0
102
RTVSPost2010PropOp36
 70
     1
102
RTVSPost2010Prop37
 90
       50
102
RTVSPost2010PropOp37
 70
     1
102
RTVSPost2010Prop38
140
0.0
102
RTVSPost2010PropOp38
 70
     1
102
RTVSPost2010Prop39
140
1.0
102
RTVSPost2010PropOp39
 70
     1
102
RTVSPost2010Prop40
 90
        0
102
RTVSPost2010PropOp40
 70
     1
102
RTVSPost2010Prop41ColorIndex
 90
       18
102
RTVSPost2010Prop41ColorRGB
 90
        0
102
RTVSPost2010PropOp41
 70
     1
102
RTVSPost2010Prop42
 90
       50
102
RTVSPost2010PropOp42
 70
     1
102
RTVSPost2010Prop43
 90
        3
102
RTVSPost2010PropOp43
 70
     1
102
RTVSPost2010Prop44ColorIndex
 90
        5
102
RTVSPost2010Prop44ColorRGB
 90
      255
102
RTVSPost2010PropOp44
 70
     1
102
RTVSPost2010Prop45
280
     0
102
RTVSPost2010PropOp45
 70
     1
102
RTVSPost2010Prop46
 90
       50
102
RTVSPost2010PropOp46
 70
     1
102
RTVSPost2010Prop47
 90
       50
102
RTVSPost2010PropOp47
 70
     1
102
RTVSPost2010Prop48
 90
       50
102
RTVSPost2010PropOp48
 70
     1
102
RTVSPost2010Prop49
280
     0
102
RTVSPost2010PropOp49
 70
     1
102
RTVSPost2010Prop50
 90
       50
102
RTVSPost2010PropOp50
 70
     1
102
RTVSPost2010Prop51ColorIndex
 90
      256
102
RTVSPost2010Prop51ColorRGB
 90
-16777216
102
RTVSPost2010PropOp51
 70
     0
102
RTVSPost2010Prop52
140
1.0
102
RTVSPost2010PropOp52
 70
     0
102
RTVSPost2010Prop53
 90
        2
102
RTVSPost2010PropOp53
 70
     1
102
RTVSPost2010Prop54
  1
strokes_ogs.tif
102
RTVSPost2010PropOp54
 70
     1
102
RTVSPost2010Prop55
280
     0
102
RTVSPost2010PropOp55
 70
     1
102
RTVSPost2010Prop56
140
1.0
102
RTVSPost2010PropOp56
 70
     1
102
RTVSPost2010Prop57
140
1.0
102
RTVSPost2010PropOp57
 70
     1
  0
XRECORD
  5
2C87
102
{ACAD_REACTORS
330
2C86
102
}
330
2C86
100
AcDbXrecord
280
     1
102
RTVSPost2010Prop28
280
     0
102
RTVSPost2010PropOp28
 70
     1
102
RTVSPost2010Prop29
280
     1
102
RTVSPost2010PropOp29
 70
     1
102
RTVSPost2010Prop30
280
     1
102
RTVSPost2010PropOp30
 70
     1
102
RTVSPost2010Prop31
280
     0
102
RTVSPost2010PropOp31
 70
     1
102
RTVSPost2010Prop32
280
     0
102
RTVSPost2010PropOp32
 70
     1
102
RTVSPost2010Prop33
280
     0
102
RTVSPost2010PropOp33
 70
     1
102
RTVSPost2010Prop34
280
     0
102
RTVSPost2010PropOp34
 70
     1
102
RTVSPost2010Prop35
280
     0
102
RTVSPost2010PropOp35
 70
     1
102
RTVSPost2010Prop36
280
     0
102
RTVSPost2010PropOp36
 70
     1
102
RTVSPost2010Prop37
 90
       50
102
RTVSPost2010PropOp37
 70
     1
102
RTVSPost2010Prop38
140
0.0
102
RTVSPost2010PropOp38
 70
     1
102
RTVSPost2010Prop39
140
1.0
102
RTVSPost2010PropOp39
 70
     1
102
RTVSPost2010Prop40
 90
        0
102
RTVSPost2010PropOp40
 70
     1
102
RTVSPost2010Prop41ColorIndex
 90
       18
102
RTVSPost2010Prop41ColorRGB
 90
        0
102
RTVSPost2010PropOp41
 70
     1
102
RTVSPost2010Prop42
 90
       50
102
RTVSPost2010PropOp42
 70
     1
102
RTVSPost2010Prop43
 90
        3
102
RTVSPost2010PropOp43
 70
     1
102
RTVSPost2010Prop44ColorIndex
 90
        5
102
RTVSPost2010Prop44ColorRGB
 90
      255
102
RTVSPost2010PropOp44
 70
     1
102
RTVSPost2010Prop45
280
     0
102
RTVSPost2010PropOp45
 70
     1
102
RTVSPost2010Prop46
 90
       50
102
RTVSPost2010PropOp46
 70
     1
102
RTVSPost2010Prop47
 90
       50
102
RTVSPost2010PropOp47
 70
     1
102
RTVSPost2010Prop48
 90
       50
102
RTVSPost2010PropOp48
 70
     1
102
RTVSPost2010Prop49
280
     0
102
RTVSPost2010PropOp49
 70
     1
102
RTVSPost2010Prop50
 90
       50
102
RTVSPost2010PropOp50
 70
     1
102
RTVSPost2010Prop51ColorIndex
 90
      256
102
RTVSPost2010Prop51ColorRGB
 90
-16777216
102
RTVSPost2010PropOp51
 70
     0
102
RTVSPost2010Prop52
140
1.0
102
RTVSPost2010PropOp52
 70
     0
102
RTVSPost2010Prop53
 90
        2
102
RTVSPost2010PropOp53
 70
     1
102
RTVSPost2010Prop54
  1
strokes_ogs.tif
102
RTVSPost2010PropOp54
 70
     1
102
RTVSPost2010Prop55
280
     0
102
RTVSPost2010PropOp55
 70
     1
102
RTVSPost2010Prop56
140
1.0
102
RTVSPost2010PropOp56
 70
     1
102
RTVSPost2010Prop57
140
1.0
102
RTVSPost2010PropOp57
 70
     1
  0
XRECORD
  5
2C8F
102
{ACAD_REACTORS
330
2C8E
102
}
330
2C8E
100
AcDbXrecord
280
     1
102
RTVSPost2010Prop28
280
     0
102
RTVSPost2010PropOp28
 70
     1
102
RTVSPost2010Prop29
280
     1
102
RTVSPost2010PropOp29
 70
     1
102
RTVSPost2010Prop30
280
     1
102
RTVSPost2010PropOp30
 70
     1
102
RTVSPost2010Prop31
280
     0
102
RTVSPost2010PropOp31
 70
     1
102
RTVSPost2010Prop32
280
     0
102
RTVSPost2010PropOp32
 70
     1
102
RTVSPost2010Prop33
280
     0
102
RTVSPost2010PropOp33
 70
     1
102
RTVSPost2010Prop34
280
     0
102
RTVSPost2010PropOp34
 70
     1
102
RTVSPost2010Prop35
280
     0
102
RTVSPost2010PropOp35
 70
     1
102
RTVSPost2010Prop36
280
     0
102
RTVSPost2010PropOp36
 70
     1
102
RTVSPost2010Prop37
 90
       50
102
RTVSPost2010PropOp37
 70
     1
102
RTVSPost2010Prop38
140
0.0
102
RTVSPost2010PropOp38
 70
     1
102
RTVSPost2010Prop39
140
1.0
102
RTVSPost2010PropOp39
 70
     1
102
RTVSPost2010Prop40
 90
        0
102
RTVSPost2010PropOp40
 70
     1
102
RTVSPost2010Prop41ColorIndex
 90
       18
102
RTVSPost2010Prop41ColorRGB
 90
        0
102
RTVSPost2010PropOp41
 70
     1
102
RTVSPost2010Prop42
 90
       50
102
RTVSPost2010PropOp42
 70
     1
102
RTVSPost2010Prop43
 90
        3
102
RTVSPost2010PropOp43
 70
     1
102
RTVSPost2010Prop44ColorIndex
 90
        5
102
RTVSPost2010Prop44ColorRGB
 90
      255
102
RTVSPost2010PropOp44
 70
     1
102
RTVSPost2010Prop45
280
     0
102
RTVSPost2010PropOp45
 70
     1
102
RTVSPost2010Prop46
 90
       50
102
RTVSPost2010PropOp46
 70
     1
102
RTVSPost2010Prop47
 90
       50
102
RTVSPost2010PropOp47
 70
     1
102
RTVSPost2010Prop48
 90
       50
102
RTVSPost2010PropOp48
 70
     1
102
RTVSPost2010Prop49
280
     0
102
RTVSPost2010PropOp49
 70
     1
102
RTVSPost2010Prop50
 90
       50
102
RTVSPost2010PropOp50
 70
     1
102
RTVSPost2010Prop51ColorIndex
 90
      256
102
RTVSPost2010Prop51ColorRGB
 90
-16777216
102
RTVSPost2010PropOp51
 70
     0
102
RTVSPost2010Prop52
140
1.0
102
RTVSPost2010PropOp52
 70
     0
102
RTVSPost2010Prop53
 90
        2
102
RTVSPost2010PropOp53
 70
     1
102
RTVSPost2010Prop54
  1
strokes_ogs.tif
102
RTVSPost2010PropOp54
 70
     1
102
RTVSPost2010Prop55
280
     0
102
RTVSPost2010PropOp55
 70
     1
102
RTVSPost2010Prop56
140
1.0
102
RTVSPost2010PropOp56
 70
     1
102
RTVSPost2010Prop57
140
1.0
102
RTVSPost2010PropOp57
 70
     1
  0
XRECORD
  5
2C7F
102
{ACAD_REACTORS
330
2C7E
102
}
330
2C7E
100
AcDbXrecord
280
     1
102
RTVSPost2010Prop28
280
     0
102
RTVSPost2010PropOp28
 70
     1
102
RTVSPost2010Prop29
280
     1
102
RTVSPost2010PropOp29
 70
     1
102
RTVSPost2010Prop30
280
     1
102
RTVSPost2010PropOp30
 70
     1
102
RTVSPost2010Prop31
280
     0
102
RTVSPost2010PropOp31
 70
     1
102
RTVSPost2010Prop32
280
     0
102
RTVSPost2010PropOp32
 70
     1
102
RTVSPost2010Prop33
280
     0
102
RTVSPost2010PropOp33
 70
     1
102
RTVSPost2010Prop34
280
     0
102
RTVSPost2010PropOp34
 70
     1
102
RTVSPost2010Prop35
280
     0
102
RTVSPost2010PropOp35
 70
     1
102
RTVSPost2010Prop36
280
     0
102
RTVSPost2010PropOp36
 70
     1
102
RTVSPost2010Prop37
 90
       50
102
RTVSPost2010PropOp37
 70
     1
102
RTVSPost2010Prop38
140
0.0
102
RTVSPost2010PropOp38
 70
     1
102
RTVSPost2010Prop39
140
1.0
102
RTVSPost2010PropOp39
 70
     1
102
RTVSPost2010Prop40
 90
        0
102
RTVSPost2010PropOp40
 70
     1
102
RTVSPost2010Prop41ColorIndex
 90
       18
102
RTVSPost2010Prop41ColorRGB
 90
        0
102
RTVSPost2010PropOp41
 70
     1
102
RTVSPost2010Prop42
 90
       50
102
RTVSPost2010PropOp42
 70
     1
102
RTVSPost2010Prop43
 90
        3
102
RTVSPost2010PropOp43
 70
     1
102
RTVSPost2010Prop44ColorIndex
 90
        5
102
RTVSPost2010Prop44ColorRGB
 90
      255
102
RTVSPost2010PropOp44
 70
     1
102
RTVSPost2010Prop45
280
     0
102
RTVSPost2010PropOp45
 70
     1
102
RTVSPost2010Prop46
 90
       50
102
RTVSPost2010PropOp46
 70
     1
102
RTVSPost2010Prop47
 90
       50
102
RTVSPost2010PropOp47
 70
     1
102
RTVSPost2010Prop48
 90
       50
102
RTVSPost2010PropOp48
 70
     1
102
RTVSPost2010Prop49
280
     0
102
RTVSPost2010PropOp49
 70
     1
102
RTVSPost2010Prop50
 90
       50
102
RTVSPost2010PropOp50
 70
     1
102
RTVSPost2010Prop51ColorIndex
 90
      256
102
RTVSPost2010Prop51ColorRGB
 90
-16777216
102
RTVSPost2010PropOp51
 70
     0
102
RTVSPost2010Prop52
140
1.0
102
RTVSPost2010PropOp52
 70
     0
102
RTVSPost2010Prop53
 90
        2
102
RTVSPost2010PropOp53
 70
     1
102
RTVSPost2010Prop54
  1
strokes_ogs.tif
102
RTVSPost2010PropOp54
 70
     1
102
RTVSPost2010Prop55
280
     0
102
RTVSPost2010PropOp55
 70
     1
102
RTVSPost2010Prop56
140
1.0
102
RTVSPost2010PropOp56
 70
     1
102
RTVSPost2010Prop57
140
1.0
102
RTVSPost2010PropOp57
 70
     1
  0
XRECORD
  5
2C9B
102
{ACAD_REACTORS
330
2C9A
102
}
330
2C9A
100
AcDbXrecord
280
     1
102
RTVSPost2010Prop28
280
     0
102
RTVSPost2010PropOp28
 70
     1
102
RTVSPost2010Prop29
280
     1
102
RTVSPost2010PropOp29
 70
     1
102
RTVSPost2010Prop30
280
     1
102
RTVSPost2010PropOp30
 70
     1
102
RTVSPost2010Prop31
280
     0
102
RTVSPost2010PropOp31
 70
     1
102
RTVSPost2010Prop32
280
     0
102
RTVSPost2010PropOp32
 70
     1
102
RTVSPost2010Prop33
280
     0
102
RTVSPost2010PropOp33
 70
     1
102
RTVSPost2010Prop34
280
     0
102
RTVSPost2010PropOp34
 70
     1
102
RTVSPost2010Prop35
280
     0
102
RTVSPost2010PropOp35
 70
     1
102
RTVSPost2010Prop36
280
     0
102
RTVSPost2010PropOp36
 70
     1
102
RTVSPost2010Prop37
 90
       50
102
RTVSPost2010PropOp37
 70
     1
102
RTVSPost2010Prop38
140
0.0
102
RTVSPost2010PropOp38
 70
     1
102
RTVSPost2010Prop39
140
1.0
102
RTVSPost2010PropOp39
 70
     1
102
RTVSPost2010Prop40
 90
        0
102
RTVSPost2010PropOp40
 70
     1
102
RTVSPost2010Prop41ColorIndex
 90
       18
102
RTVSPost2010Prop41ColorRGB
 90
        0
102
RTVSPost2010PropOp41
 70
     1
102
RTVSPost2010Prop42
 90
       50
102
RTVSPost2010PropOp42
 70
     1
102
RTVSPost2010Prop43
 90
        3
102
RTVSPost2010PropOp43
 70
     1
102
RTVSPost2010Prop44ColorIndex
 90
        5
102
RTVSPost2010Prop44ColorRGB
 90
      255
102
RTVSPost2010PropOp44
 70
     1
102
RTVSPost2010Prop45
280
     0
102
RTVSPost2010PropOp45
 70
     1
102
RTVSPost2010Prop46
 90
       50
102
RTVSPost2010PropOp46
 70
     1
102
RTVSPost2010Prop47
 90
       50
102
RTVSPost2010PropOp47
 70
     1
102
RTVSPost2010Prop48
 90
       50
102
RTVSPost2010PropOp48
 70
     1
102
RTVSPost2010Prop49
280
     0
102
RTVSPost2010PropOp49
 70
     1
102
RTVSPost2010Prop50
 90
       50
102
RTVSPost2010PropOp50
 70
     1
102
RTVSPost2010Prop51ColorIndex
 90
      256
102
RTVSPost2010Prop51ColorRGB
 90
-16777216
102
RTVSPost2010PropOp51
 70
     0
102
RTVSPost2010Prop52
140
1.0
102
RTVSPost2010PropOp52
 70
     0
102
RTVSPost2010Prop53
 90
        2
102
RTVSPost2010PropOp53
 70
     1
102
RTVSPost2010Prop54
  1
strokes_ogs.tif
102
RTVSPost2010PropOp54
 70
     1
102
RTVSPost2010Prop55
280
     0
102
RTVSPost2010PropOp55
 70
     1
102
RTVSPost2010Prop56
140
1.0
102
RTVSPost2010PropOp56
 70
     1
102
RTVSPost2010Prop57
140
1.0
102
RTVSPost2010PropOp57
 70
     1
  0
XRECORD
  5
2C99
102
{ACAD_REACTORS
330
2C98
102
}
330
2C98
100
AcDbXrecord
280
     1
102
RTVSPost2010Prop28
280
     0
102
RTVSPost2010PropOp28
 70
     1
102
RTVSPost2010Prop29
280
     1
102
RTVSPost2010PropOp29
 70
     1
102
RTVSPost2010Prop30
280
     1
102
RTVSPost2010PropOp30
 70
     1
102
RTVSPost2010Prop31
280
     0
102
RTVSPost2010PropOp31
 70
     1
102
RTVSPost2010Prop32
280
     0
102
RTVSPost2010PropOp32
 70
     1
102
RTVSPost2010Prop33
280
     0
102
RTVSPost2010PropOp33
 70
     1
102
RTVSPost2010Prop34
280
     0
102
RTVSPost2010PropOp34
 70
     1
102
RTVSPost2010Prop35
280
     0
102
RTVSPost2010PropOp35
 70
     1
102
RTVSPost2010Prop36
280
     0
102
RTVSPost2010PropOp36
 70
     1
102
RTVSPost2010Prop37
 90
       50
102
RTVSPost2010PropOp37
 70
     1
102
RTVSPost2010Prop38
140
0.0
102
RTVSPost2010PropOp38
 70
     1
102
RTVSPost2010Prop39
140
1.0
102
RTVSPost2010PropOp39
 70
     1
102
RTVSPost2010Prop40
 90
        0
102
RTVSPost2010PropOp40
 70
     1
102
RTVSPost2010Prop41ColorIndex
 90
       18
102
RTVSPost2010Prop41ColorRGB
 90
        0
102
RTVSPost2010PropOp41
 70
     1
102
RTVSPost2010Prop42
 90
       50
102
RTVSPost2010PropOp42
 70
     1
102
RTVSPost2010Prop43
 90
        3
102
RTVSPost2010PropOp43
 70
     1
102
RTVSPost2010Prop44ColorIndex
 90
        5
102
RTVSPost2010Prop44ColorRGB
 90
      255
102
RTVSPost2010PropOp44
 70
     1
102
RTVSPost2010Prop45
280
     0
102
RTVSPost2010PropOp45
 70
     1
102
RTVSPost2010Prop46
 90
       50
102
RTVSPost2010PropOp46
 70
     1
102
RTVSPost2010Prop47
 90
       50
102
RTVSPost2010PropOp47
 70
     1
102
RTVSPost2010Prop48
 90
       50
102
RTVSPost2010PropOp48
 70
     1
102
RTVSPost2010Prop49
280
     0
102
RTVSPost2010PropOp49
 70
     1
102
RTVSPost2010Prop50
 90
       50
102
RTVSPost2010PropOp50
 70
     1
102
RTVSPost2010Prop51ColorIndex
 90
      256
102
RTVSPost2010Prop51ColorRGB
 90
-16777216
102
RTVSPost2010PropOp51
 70
     0
102
RTVSPost2010Prop52
140
1.0
102
RTVSPost2010PropOp52
 70
     0
102
RTVSPost2010Prop53
 90
        2
102
RTVSPost2010PropOp53
 70
     1
102
RTVSPost2010Prop54
  1
strokes_ogs.tif
102
RTVSPost2010PropOp54
 70
     1
102
RTVSPost2010Prop55
280
     0
102
RTVSPost2010PropOp55
 70
     1
102
RTVSPost2010Prop56
140
1.0
102
RTVSPost2010PropOp56
 70
     1
102
RTVSPost2010Prop57
140
1.0
102
RTVSPost2010PropOp57
 70
     1
  0
XRECORD
  5
2C93
102
{ACAD_REACTORS
330
2C92
102
}
330
2C92
100
AcDbXrecord
280
     1
102
RTVSPost2010Prop28
280
     0
102
RTVSPost2010PropOp28
 70
     1
102
RTVSPost2010Prop29
280
     1
102
RTVSPost2010PropOp29
 70
     1
102
RTVSPost2010Prop30
280
     1
102
RTVSPost2010PropOp30
 70
     1
102
RTVSPost2010Prop31
280
     0
102
RTVSPost2010PropOp31
 70
     1
102
RTVSPost2010Prop32
280
     0
102
RTVSPost2010PropOp32
 70
     1
102
RTVSPost2010Prop33
280
     0
102
RTVSPost2010PropOp33
 70
     1
102
RTVSPost2010Prop34
280
     0
102
RTVSPost2010PropOp34
 70
     1
102
RTVSPost2010Prop35
280
     0
102
RTVSPost2010PropOp35
 70
     1
102
RTVSPost2010Prop36
280
     0
102
RTVSPost2010PropOp36
 70
     1
102
RTVSPost2010Prop37
 90
       50
102
RTVSPost2010PropOp37
 70
     1
102
RTVSPost2010Prop38
140
0.0
102
RTVSPost2010PropOp38
 70
     1
102
RTVSPost2010Prop39
140
1.0
102
RTVSPost2010PropOp39
 70
     1
102
RTVSPost2010Prop40
 90
        0
102
RTVSPost2010PropOp40
 70
     1
102
RTVSPost2010Prop41ColorIndex
 90
       18
102
RTVSPost2010Prop41ColorRGB
 90
        0
102
RTVSPost2010PropOp41
 70
     1
102
RTVSPost2010Prop42
 90
       50
102
RTVSPost2010PropOp42
 70
     1
102
RTVSPost2010Prop43
 90
        3
102
RTVSPost2010PropOp43
 70
     1
102
RTVSPost2010Prop44ColorIndex
 90
        5
102
RTVSPost2010Prop44ColorRGB
 90
      255
102
RTVSPost2010PropOp44
 70
     1
102
RTVSPost2010Prop45
280
     0
102
RTVSPost2010PropOp45
 70
     1
102
RTVSPost2010Prop46
 90
       50
102
RTVSPost2010PropOp46
 70
     1
102
RTVSPost2010Prop47
 90
       50
102
RTVSPost2010PropOp47
 70
     1
102
RTVSPost2010Prop48
 90
       50
102
RTVSPost2010PropOp48
 70
     1
102
RTVSPost2010Prop49
280
     0
102
RTVSPost2010PropOp49
 70
     1
102
RTVSPost2010Prop50
 90
       50
102
RTVSPost2010PropOp50
 70
     1
102
RTVSPost2010Prop51ColorIndex
 90
      256
102
RTVSPost2010Prop51ColorRGB
 90
-16777216
102
RTVSPost2010PropOp51
 70
     0
102
RTVSPost2010Prop52
140
1.0
102
RTVSPost2010PropOp52
 70
     0
102
RTVSPost2010Prop53
 90
        2
102
RTVSPost2010PropOp53
 70
     1
102
RTVSPost2010Prop54
  1
strokes_ogs.tif
102
RTVSPost2010PropOp54
 70
     1
102
RTVSPost2010Prop55
280
     0
102
RTVSPost2010PropOp55
 70
     1
102
RTVSPost2010Prop56
140
1.0
102
RTVSPost2010PropOp56
 70
     1
102
RTVSPost2010Prop57
140
1.0
102
RTVSPost2010PropOp57
 70
     1
  0
XRECORD
  5
2C95
102
{ACAD_REACTORS
330
2C94
102
}
330
2C94
100
AcDbXrecord
280
     1
102
RTVSPost2010Prop28
280
     0
102
RTVSPost2010PropOp28
 70
     1
102
RTVSPost2010Prop29
280
     1
102
RTVSPost2010PropOp29
 70
     1
102
RTVSPost2010Prop30
280
     1
102
RTVSPost2010PropOp30
 70
     1
102
RTVSPost2010Prop31
280
     0
102
RTVSPost2010PropOp31
 70
     1
102
RTVSPost2010Prop32
280
     0
102
RTVSPost2010PropOp32
 70
     1
102
RTVSPost2010Prop33
280
     0
102
RTVSPost2010PropOp33
 70
     1
102
RTVSPost2010Prop34
280
     0
102
RTVSPost2010PropOp34
 70
     1
102
RTVSPost2010Prop35
280
     0
102
RTVSPost2010PropOp35
 70
     1
102
RTVSPost2010Prop36
280
     0
102
RTVSPost2010PropOp36
 70
     1
102
RTVSPost2010Prop37
 90
       50
102
RTVSPost2010PropOp37
 70
     1
102
RTVSPost2010Prop38
140
0.0
102
RTVSPost2010PropOp38
 70
     1
102
RTVSPost2010Prop39
140
1.0
102
RTVSPost2010PropOp39
 70
     1
102
RTVSPost2010Prop40
 90
        0
102
RTVSPost2010PropOp40
 70
     1
102
RTVSPost2010Prop41ColorIndex
 90
       18
102
RTVSPost2010Prop41ColorRGB
 90
        0
102
RTVSPost2010PropOp41
 70
     1
102
RTVSPost2010Prop42
 90
       50
102
RTVSPost2010PropOp42
 70
     1
102
RTVSPost2010Prop43
 90
        3
102
RTVSPost2010PropOp43
 70
     1
102
RTVSPost2010Prop44ColorIndex
 90
        5
102
RTVSPost2010Prop44ColorRGB
 90
      255
102
RTVSPost2010PropOp44
 70
     1
102
RTVSPost2010Prop45
280
     0
102
RTVSPost2010PropOp45
 70
     1
102
RTVSPost2010Prop46
 90
       50
102
RTVSPost2010PropOp46
 70
     1
102
RTVSPost2010Prop47
 90
       50
102
RTVSPost2010PropOp47
 70
     1
102
RTVSPost2010Prop48
 90
       50
102
RTVSPost2010PropOp48
 70
     1
102
RTVSPost2010Prop49
280
     0
102
RTVSPost2010PropOp49
 70
     1
102
RTVSPost2010Prop50
 90
       50
102
RTVSPost2010PropOp50
 70
     1
102
RTVSPost2010Prop51ColorIndex
 90
      256
102
RTVSPost2010Prop51ColorRGB
 90
-16777216
102
RTVSPost2010PropOp51
 70
     0
102
RTVSPost2010Prop52
140
1.0
102
RTVSPost2010PropOp52
 70
     0
102
RTVSPost2010Prop53
 90
        2
102
RTVSPost2010PropOp53
 70
     1
102
RTVSPost2010Prop54
  1
strokes_ogs.tif
102
RTVSPost2010PropOp54
 70
     1
102
RTVSPost2010Prop55
280
     0
102
RTVSPost2010PropOp55
 70
     1
102
RTVSPost2010Prop56
140
1.0
102
RTVSPost2010PropOp56
 70
     1
102
RTVSPost2010Prop57
140
1.0
102
RTVSPost2010PropOp57
 70
     1
  0
XRECORD
  5
2C85
102
{ACAD_REACTORS
330
2C84
102
}
330
2C84
100
AcDbXrecord
280
     1
102
RTVSPost2010Prop28
280
     0
102
RTVSPost2010PropOp28
 70
     1
102
RTVSPost2010Prop29
280
     1
102
RTVSPost2010PropOp29
 70
     1
102
RTVSPost2010Prop30
280
     1
102
RTVSPost2010PropOp30
 70
     1
102
RTVSPost2010Prop31
280
     0
102
RTVSPost2010PropOp31
 70
     1
102
RTVSPost2010Prop32
280
     0
102
RTVSPost2010PropOp32
 70
     1
102
RTVSPost2010Prop33
280
     0
102
RTVSPost2010PropOp33
 70
     1
102
RTVSPost2010Prop34
280
     0
102
RTVSPost2010PropOp34
 70
     1
102
RTVSPost2010Prop35
280
     0
102
RTVSPost2010PropOp35
 70
     1
102
RTVSPost2010Prop36
280
     0
102
RTVSPost2010PropOp36
 70
     1
102
RTVSPost2010Prop37
 90
       50
102
RTVSPost2010PropOp37
 70
     1
102
RTVSPost2010Prop38
140
0.0
102
RTVSPost2010PropOp38
 70
     1
102
RTVSPost2010Prop39
140
1.0
102
RTVSPost2010PropOp39
 70
     1
102
RTVSPost2010Prop40
 90
        0
102
RTVSPost2010PropOp40
 70
     1
102
RTVSPost2010Prop41ColorIndex
 90
       18
102
RTVSPost2010Prop41ColorRGB
 90
        0
102
RTVSPost2010PropOp41
 70
     1
102
RTVSPost2010Prop42
 90
       50
102
RTVSPost2010PropOp42
 70
     1
102
RTVSPost2010Prop43
 90
        3
102
RTVSPost2010PropOp43
 70
     1
102
RTVSPost2010Prop44ColorIndex
 90
        5
102
RTVSPost2010Prop44ColorRGB
 90
      255
102
RTVSPost2010PropOp44
 70
     1
102
RTVSPost2010Prop45
280
     0
102
RTVSPost2010PropOp45
 70
     1
102
RTVSPost2010Prop46
 90
       50
102
RTVSPost2010PropOp46
 70
     1
102
RTVSPost2010Prop47
 90
       50
102
RTVSPost2010PropOp47
 70
     1
102
RTVSPost2010Prop48
 90
       50
102
RTVSPost2010PropOp48
 70
     1
102
RTVSPost2010Prop49
280
     0
102
RTVSPost2010PropOp49
 70
     1
102
RTVSPost2010Prop50
 90
       50
102
RTVSPost2010PropOp50
 70
     1
102
RTVSPost2010Prop51ColorIndex
 90
      256
102
RTVSPost2010Prop51ColorRGB
 90
-16777216
102
RTVSPost2010PropOp51
 70
     0
102
RTVSPost2010Prop52
140
1.0
102
RTVSPost2010PropOp52
 70
     0
102
RTVSPost2010Prop53
 90
        2
102
RTVSPost2010PropOp53
 70
     1
102
RTVSPost2010Prop54
  1
strokes_ogs.tif
102
RTVSPost2010PropOp54
 70
     1
102
RTVSPost2010Prop55
280
     0
102
RTVSPost2010PropOp55
 70
     1
102
RTVSPost2010Prop56
140
1.0
102
RTVSPost2010PropOp56
 70
     1
102
RTVSPost2010Prop57
140
1.0
102
RTVSPost2010PropOp57
 70
     1
  0
XRECORD
  5
2C79
102
{ACAD_REACTORS
330
2C78
102
}
330
2C78
100
AcDbXrecord
280
     1
102
RTVSPost2010Prop28
280
     0
102
RTVSPost2010PropOp28
 70
     1
102
RTVSPost2010Prop29
280
     1
102
RTVSPost2010PropOp29
 70
     1
102
RTVSPost2010Prop30
280
     1
102
RTVSPost2010PropOp30
 70
     1
102
RTVSPost2010Prop31
280
     0
102
RTVSPost2010PropOp31
 70
     1
102
RTVSPost2010Prop32
280
     0
102
RTVSPost2010PropOp32
 70
     1
102
RTVSPost2010Prop33
280
     0
102
RTVSPost2010PropOp33
 70
     1
102
RTVSPost2010Prop34
280
     0
102
RTVSPost2010PropOp34
 70
     1
102
RTVSPost2010Prop35
280
     0
102
RTVSPost2010PropOp35
 70
     1
102
RTVSPost2010Prop36
280
     0
102
RTVSPost2010PropOp36
 70
     1
102
RTVSPost2010Prop37
 90
       50
102
RTVSPost2010PropOp37
 70
     1
102
RTVSPost2010Prop38
140
0.0
102
RTVSPost2010PropOp38
 70
     1
102
RTVSPost2010Prop39
140
1.0
102
RTVSPost2010PropOp39
 70
     1
102
RTVSPost2010Prop40
 90
        0
102
RTVSPost2010PropOp40
 70
     1
102
RTVSPost2010Prop41ColorIndex
 90
       18
102
RTVSPost2010Prop41ColorRGB
 90
        0
102
RTVSPost2010PropOp41
 70
     1
102
RTVSPost2010Prop42
 90
       50
102
RTVSPost2010PropOp42
 70
     1
102
RTVSPost2010Prop43
 90
        3
102
RTVSPost2010PropOp43
 70
     1
102
RTVSPost2010Prop44ColorIndex
 90
        5
102
RTVSPost2010Prop44ColorRGB
 90
      255
102
RTVSPost2010PropOp44
 70
     1
102
RTVSPost2010Prop45
280
     0
102
RTVSPost2010PropOp45
 70
     1
102
RTVSPost2010Prop46
 90
       50
102
RTVSPost2010PropOp46
 70
     1
102
RTVSPost2010Prop47
 90
       50
102
RTVSPost2010PropOp47
 70
     1
102
RTVSPost2010Prop48
 90
       50
102
RTVSPost2010PropOp48
 70
     1
102
RTVSPost2010Prop49
280
     0
102
RTVSPost2010PropOp49
 70
     1
102
RTVSPost2010Prop50
 90
       50
102
RTVSPost2010PropOp50
 70
     1
102
RTVSPost2010Prop51ColorIndex
 90
      256
102
RTVSPost2010Prop51ColorRGB
 90
-16777216
102
RTVSPost2010PropOp51
 70
     0
102
RTVSPost2010Prop52
140
1.0
102
RTVSPost2010PropOp52
 70
     0
102
RTVSPost2010Prop53
 90
        2
102
RTVSPost2010PropOp53
 70
     1
102
RTVSPost2010Prop54
  1
strokes_ogs.tif
102
RTVSPost2010PropOp54
 70
     1
102
RTVSPost2010Prop55
280
     0
102
RTVSPost2010PropOp55
 70
     1
102
RTVSPost2010Prop56
140
1.0
102
RTVSPost2010PropOp56
 70
     1
102
RTVSPost2010Prop57
140
1.0
102
RTVSPost2010PropOp57
 70
     1
  0
XRECORD
  5
2C97
102
{ACAD_REACTORS
330
2C96
102
}
330
2C96
100
AcDbXrecord
280
     1
102
RTVSPost2010Prop28
280
     0
102
RTVSPost2010PropOp28
 70
     1
102
RTVSPost2010Prop29
280
     1
102
RTVSPost2010PropOp29
 70
     1
102
RTVSPost2010Prop30
280
     1
102
RTVSPost2010PropOp30
 70
     1
102
RTVSPost2010Prop31
280
     0
102
RTVSPost2010PropOp31
 70
     1
102
RTVSPost2010Prop32
280
     0
102
RTVSPost2010PropOp32
 70
     1
102
RTVSPost2010Prop33
280
     0
102
RTVSPost2010PropOp33
 70
     1
102
RTVSPost2010Prop34
280
     0
102
RTVSPost2010PropOp34
 70
     1
102
RTVSPost2010Prop35
280
     0
102
RTVSPost2010PropOp35
 70
     1
102
RTVSPost2010Prop36
280
     0
102
RTVSPost2010PropOp36
 70
     1
102
RTVSPost2010Prop37
 90
       50
102
RTVSPost2010PropOp37
 70
     1
102
RTVSPost2010Prop38
140
0.0
102
RTVSPost2010PropOp38
 70
     1
102
RTVSPost2010Prop39
140
1.0
102
RTVSPost2010PropOp39
 70
     1
102
RTVSPost2010Prop40
 90
        0
102
RTVSPost2010PropOp40
 70
     1
102
RTVSPost2010Prop41ColorIndex
 90
       18
102
RTVSPost2010Prop41ColorRGB
 90
        0
102
RTVSPost2010PropOp41
 70
     1
102
RTVSPost2010Prop42
 90
       50
102
RTVSPost2010PropOp42
 70
     1
102
RTVSPost2010Prop43
 90
        3
102
RTVSPost2010PropOp43
 70
     1
102
RTVSPost2010Prop44ColorIndex
 90
        5
102
RTVSPost2010Prop44ColorRGB
 90
      255
102
RTVSPost2010PropOp44
 70
     1
102
RTVSPost2010Prop45
280
     0
102
RTVSPost2010PropOp45
 70
     1
102
RTVSPost2010Prop46
 90
       50
102
RTVSPost2010PropOp46
 70
     1
102
RTVSPost2010Prop47
 90
       50
102
RTVSPost2010PropOp47
 70
     1
102
RTVSPost2010Prop48
 90
       50
102
RTVSPost2010PropOp48
 70
     1
102
RTVSPost2010Prop49
280
     0
102
RTVSPost2010PropOp49
 70
     1
102
RTVSPost2010Prop50
 90
       50
102
RTVSPost2010PropOp50
 70
     1
102
RTVSPost2010Prop51ColorIndex
 90
      256
102
RTVSPost2010Prop51ColorRGB
 90
-16777216
102
RTVSPost2010PropOp51
 70
     0
102
RTVSPost2010Prop52
140
1.0
102
RTVSPost2010PropOp52
 70
     0
102
RTVSPost2010Prop53
 90
        2
102
RTVSPost2010PropOp53
 70
     1
102
RTVSPost2010Prop54
  1
strokes_ogs.tif
102
RTVSPost2010PropOp54
 70
     1
102
RTVSPost2010Prop55
280
     0
102
RTVSPost2010PropOp55
 70
     1
102
RTVSPost2010Prop56
140
1.0
102
RTVSPost2010PropOp56
 70
     1
102
RTVSPost2010Prop57
140
1.0
102
RTVSPost2010PropOp57
 70
     1
  0
ENDSEC
  0
EOF
